Oops, an error
Loading. Please wait.

Money Bass Tab

version 2
version 2

Whole song

238,936 views 267 this week
37 commentsread comments
1 2 3 4 5
excellent!
x 167
add to favorites
launch autoscroll
font size
0
reset
guitar tuner
Autoscroll
slow
fast
+/-
esc
set tempo
stop
Help us to improve Ultimate-Guitar.com Take our survey!
×
Author
MONEY (Bassline)
                            As recorded by Pink Floyd

Words and Music by Roger Waters
Transcribed by Jake Brown

Gtr I (E A D G) - 'Untitled'

 
  Moderate Rock Q=118(8=s8)
 7/4
  Gtr I

  
[Intro]

G|----------------|----4------------------|----4-------------------|
D|----------------|------4-------------0--|------4-------------0---|
A|----------------|-2------2-----0--2-----|-2------2-----0--2------|
E|----------------|-----------2-----------|-----------2------------|

G|----4------------------|----4------------------|----4--------------------|
D|------4-------------0--|------4-------------0--|------4-------------0----|
A|-2------2-----0--2-----|-2------2-----0--2-----|-2------2-----0--2-------|
E|-----------2-----------|-----------2-----------|-----------2-------------|

G|----4------------------|----4------------------|----4--------------------|
D|------4-------------0--|------4-------------0--|------4-------------0----|
A|-2------2-----0--2-----|-2------2-----0--2-----|-2------2-----0--2-------|
E|-----------2-----------|-----------2-----------|-----------2-------------|


[Verse]

G||-----4------------------|----4------------------|-----------------------|
D||o------4-------------0--|------4-------------0--|----0--------------0---|
A||o-2------2-----0--2-----|-2------2-----0--2-----|-2-----2-----0--2------|
E||------------2-----------|-----------2-----------|----------2------------|

G|----4------------------|----4------------------|----4--------------------|
D|------4-------------0--|------4-------------0--|------4-------------0----|
A|-2------2-----0--2-----|-2------2-----0--2-----|-2------2-----0--2-------|
E|-----------2-----------|-----------2-----------|-----------2-------------|

G|----------------------|----4------------------|---------------------------|
D|----0--------------0--|------4-------------0--|-4----4------------4--3----|
A|-2-----2-----0--2-----|-2------2-----0--2-----|--------4----0--4----------|
E|----------2-----------|-----------2-----------|----------2----------------|

[To Coda]

G|--------------------|----4------------------|----4--------------------||
D|-----------------0--|------4-------------0--|------4-------------0---o||
A|-2---------0--2-----|-2------2-----0--2-----|-2------2-----0--2------o||
E|---2-0--3-----------|-----------2-----------|-----------2-------------||


[Sax Solo]

G|----4------------------|----4------------------|
D|------4-------------0--|------4-------------0--|
A|-2------2-----0--2-----|-2------2-----0--2-----|
E|-----------2-----------|-----------2-----------|

G|----4------------------|----4--------------------|
D|------4-------------0--|------4-------------0----|
A|-2------2-----0--2-----|-2------2-----0--2-------|
E|-----------2-----------|-----------2-------------|

G|----4------------------|----4------------------|
D|------4-------------0--|------4-------------0--|
A|-2------2-----0--2-----|-2------2-----0--2-----|
E|-----------2-----------|-----------2-----------|

G|----4------------------|----4--------------------|
D|------4-------------0--|------4-------------0----|
A|-2------2-----0--2-----|-2------2-----0--2-------|
E|-----------2-----------|-----------2-------------|

G|----9--------------------|----9--------------------|
D|------9------------------|------9------------------|
A|-7------7---------7--10--|-7------7---------7--10--|
E|-----------7--10---------|-----------7--10---------|

G|----9--------------------|----9----------------------|
D|------9------------------|------9--------------------|
A|-7------7---------7--10--|-7------7---------7--10----|
E|-----------7--10---------|-----------7--10-----------|

G|----4------------------|----4------------------|
D|------4-------------0--|------4-------------0--|
A|-2------2-----0--2-----|-2------2-----0--2-----|
E|-----------2-----------|-----------2-----------|

G|----4------------------|----4--------------------|
D|------4-------------0--|------4-------------0----|
A|-2------2-----0--2-----|-2------2-----0--2-------|
E|-----------2-----------|-----------2-------------|

G|-------------------------|--------------------|
D|-4----4------------4--3--|-2---------------0--|
A|--------4----0--4--------|---2-------0--2-----|
E|----------2--------------|-----0--3-----------|

  |-3-| |-3-| |-3-| |-3-|   |-3-| |-3-| |-3-| |-3-|
G|-------------------------|-------------------------||
D|-------------------------|-------------------------||
A|-2-2-2-2-2-2-2-2-2-2-2-2-|-2-2-2-2-2-2-2-2-2-2-2-2-||
E|-------------------------|-------------------------||


[Guitar Solo]

G||---------------|---------------|---------------|----------------|
D||o----0---------|-----0---------|-----0---------|-----0----------|
A||o-2-----4--3-0h|=2-2----4--3-0h|=2-2----4--3-0h|=2-2----4--3-0h=|
E||---------------|---------------|---------------|----------------|

G|---------------|---------------|---------------|---------------|
D|-----0---------|-----0---------|-----0---------|-----0---------|
A|-2-2----4--3-0h|=2-2----4--3-0h|=2-2----4--3-0h|=2-2----4--3---|
E|---------------|---------------|---------------|---------------|

G|-------------|-------------|-------------|--------------|
D|-2--1--0-----|-2--1--0-----|-2--1--0-----|-2--1--0------|
A|----------4--|----------4--|----------4--|----------4---|
E|-------------|-------------|-------------|--------------|

G|--------------|---------------|---------------|---------------|
D|----0---------|-----0---------|-----0---------|-----0---------|
A|-2-----4--3-0h|=2-2----4--3-0h|=2-2----4--3-0h|=2-2----4--3---|
E|--------------|---------------|---------------|---------------|

G|-------------|--------------|-4--2--0-----|--------------|
D|----4--3--2--|-----4--3--2--|----------4--|-2--0---------|
A|-------------|--------------|-------------|-------4--3---|
E|-2-----------|-2-2----------|-------------|--------------|

G|--------------|---------------|---------------|------------------||
D|----0---------|-----0---------|-----0---------|-----0-----------o||
A|-2-----4--3-0h|=2-2----4--3-0h|=2-2----4--3-0h|=2-2----4--3-0h==o||
E|--------------|---------------|---------------|------------------||

G|----4------------------|----4------------------||
D|------4-------------0--|------4-------------0--||
A|-2------2-----0--2-----|-2------2-----0--2-----||
E|-----------2-----------|-----------2-----------||

G|-------------|-------------|-------------|
D|----0-----0--|----0-----0--|----0-----0--|
A|-2-----2-----|-2-----2-----|-2-----2-----|
E|-------------|-------------|-------------|

G|-------------|-------------|-------------|--------------|
D|----0-----0--|----0-----0--|----0-----0--|----0-----0---|
A|-2-----2-----|-2-----2-----|-2-----2-----|-2-----2------|
E|-------------|-------------|-------------|--------------|

G|-------------|-------------|-------------||---------------|
D|----0-----0--|----0-----0--|----0-----0--||o----0-----0---|
A|-2-----2-----|-2-----2-----|-2-----2-----||o-2-----2------|
E|-------------|-------------|-------------||---------------|

G|-------------|-------------|-------------|---------------||
D|----0-----0--|----0-----0--|----0-----0--|----0-----0---o||
A|-2-----2-----|-2-----2-----|-2-----2-----|-2-----2------o||
E|-------------|-------------|-------------|---------------||



************************************

| h  Hammer-on 

************************************
Suggest correction
What's this?
You can suggest a correction to this tab. Community and Mods will review your correction and vote to approve or reject it.
comments
print report bad tab
37 comments total. Showing first comments. show 2 bad comments
-2 reply
anon5940 90 wrote on August 24 2006, 12:30 pm

jakes gonna get battered at school lol

guest
You may want to rate the tab now too:
select rating
Please do not post tabs as comments. Select "correction" instead!