Oops, an error
Loading. Please wait.

Money Tab

version 5
version 5
237,694 views 825 this week
9 commentsread comments
1 2 3 4 5
x 16
add to favorites
launch autoscroll
font size
0
reset
how to read this tab
guitar tuner
Autoscroll
slow
fast
+/-
esc
set tempo
stop
Help us to improve Ultimate-Guitar.com Take our survey!
×
Author
Difficulty
[Verse] 

 E|-----------------------------------------------------|
 B|-----------------------------------------------------|
 G|-----4-----------------------4-----------------------|
 D|--------4-----------------------4--------------------|
 A|--2--------2--------2--5--2--------2--------2--0--5--|
 E|--------------2--5--------------------2--5-----------|
                                                Po  Ch

 E|-----------------------------------------------------|
 B|-----------------------------------------------------|
 G|-----4-----------------------4-----------------------|
 D|--------4-----------------------4--------------------|
 A|--2--------2--------2--5--2--------2--------2--5-----|
 E|--------------2--5--------------------2--5-----------|
                          Ch

 E|----------------------------------------------------|
 B|----------------------------------------------------|
 G|----------------------------------------------------|
 D|--4--4-----4-------------4--3--2--------------------|
 A|--------4-------------4-------------------0--2--5---|
 E|----------------2--5----------------0--3------------|
                                         Ch

[Solo]

 E|----------------------------------------------------|
 B|----------10-(12)-(11)-(10)--7--10------------------|
 G|--9--7------------------------------9---7-----------|
 D|----------------------------------------------------|
 A|----------------------------------------------------|
 E|----------------------------------------------------|
    BU  Vib  BU       BD   BD          BU   Vib

 E|----------10-------------------12-(14)-(13)---------|
 B|--10--12------12--12---12--12---------------12--12--|
 G|----------------------------------------------------|
 D|----------------------------------------------------|
 A|----------------------------------------------------|
 E|----------------------------------------------------|
       Sl        Vib               BU      BD

 E|----------------------------------7----------10--12-|
 B|-------------------------------7-----10--12---------|
 G|--9--7--9--9-----9--(10)-(11)-----------------------|
 D|--------------9-------------------------------------|
 A|----------------------------------------------------|
 E|----------------------------------------------------|
     BU              BU                   Sl

 E|--12-(14)-12----------10--12-(14)-12--10--12--------|
 B|--------------12--12--------------------------12----|
 G|----------------------------------------------------|
 D|----------------------------------------------------|
 A|----------------------------------------------------|
 E|----------------------------------------------------|
      BU    BD                  BU  BD

 E|----------------------------------------------------|
 B|--10------------------------------------------------|
 G|------10--9--7--------------------------------------|
 D|----------------9--7--------------------7--9--7-----|
 A|----------------------8--7--5-----7--9-----------9--|
 E|-------------------------------7--------------------|
           Sl             Sl          H        Po

 E|-----------------7------------------------10--12----|
 B|--------------7-----10--10--12--12--12--------------|
 G|--7--7-----9----------------------------------------|
 D|--------9-------------------------------------------|
 A|----------------------------------------------------|
 E|----------------------------------------------------|
              BU             Sl

 E|--12-(14)-12----------14--14--12--------------------|
 B|--------------12--12--------------15--12------------|
 G|------------------------------------------14--11--9-|
 D|----------------------------------------------------|
 A|----------------------------------------------------|
 E|----------------------------------------------------|
     BU     BD      Vib  BU                        Sl

 E|----------------------------------------------------|
 B|------------10-(12)-10--10--8--7--------------------|
 G|--9--11---------------------------9--7--6-----------|
 D|--------------------------------------------10--9---|
 A|----------------------------------------------------|
 E|----------------------------------------------------|
      Sl  Vib   BU   BD

 E|----------------------------------------------------|
 B|--7---------9---------10--10---10--10---------------|
 G|--7---------9---------11--11---11--11--11-----------|
 D|-------9---------9----------------------------------|
 A|----------------------------------------------------|
 E|----------------------------------------------------|
     Ch        Ch       Sl                   Sl


************************************

| (n)  Ghost note

************************************
Suggest correction
comments
print report bad tab
9 comments total. Showing first comments.
0 reply
thedudemeister 338 Feb 02, 2008 09:45 AM

finish it

+8 reply
Groad 10 Jan 12, 2009 04:29 PM

It's better like this:

E|-----------------------------------------------------|
B|-----------------------------------------------------|
G|-----4-----------------------4-----------------------|
D|--------4--------------0--------4-----------------0--|
A|--2--------2-----0--2-----2--------2-----0--2--0-----|
E|--------------2-----------------------2--------------|
Po Ch

+1 reply
Spitfire6280 10 Jun 12, 2009 12:47 PM

I agree with the latter, if you look at Roger Waters in the video of "Making of Dark Side of the Moon', he plays it acoustic and he doesn't go from fret 2 to 5, instead he plays open strings (much easier)

guest
You may want to rate the tab now too:
select rating
Wanna post a correction for this tab? Suggest correction