Oops, an error
Loading. Please wait.

Mother Tab

version 1
version 1

Whole song

Interactive

101,211 views 96 this week
14 commentsread comments
1 2 3 4 5
accurate
x 18
add to favorites
launch autoscroll
font size
0
reset
how to read this tab
guitar tuner
Autoscroll
slow
fast
+/-
esc
set tempo
stop
Help us to improve Ultimate-Guitar.com Take our survey!
×
Author
standard tuning
distortion on electric guitar
a bit of reverb


e|------------------------------------------------|
B|----13b(15)----13b(15)--13-12-13----------------|
G|-12--------------------------------9p8h9--------|
D|------------------------------------------------|
A|------------------------------------------------|
E|------------------------------------------------|

e|----------------------------------------|
B|----------------------------------------|
G|----------------------------------------|
D|-----5-4--------------------------------|
A|-7-5-----5-----3-2-3-----(3)b5-3~~~~~---|
E|----------------------------------------|

e|-------------------------------------------------------|
B|---8-10b12---10b12---10b(12)-->r10p8-10b(13)-----------|
G|-7---------------------------------------------9p8h9---|
D|-------------------------------------------------------|
A|-------------------------------------------------------|
E|-------------------------------------------------------|

e|-12b(14)r12-10-----10b(12)r10-8-----8p7h8p7------------------|
B|--------------------------------------------8----------------|
G|----------------------------------------------7/5/4----------|
D|----------------------------------------------------5~~~~~---|
A|-------------------------------------------------------------|
E|-------------------------------------------------------------|



************************************

| h  Hammer-on
| p  Pull-off
| b  Bend
| /  Slide
| ~  Vibrato
| r  Return

************************************
Suggest correction
comments
print report bad tab
14 comments total. Showing first comments.
-1 reply
sirpsycho67 10 wrote on June 13 2003, 12:00 am

this corrects some easily made mistakes on this solo

-1 reply
Pink_Floyd_Net 30 wrote on February 19 2005, 12:00 am

That's not how the solo goes..it's more like this
e|--10~--10-8\7/8-------7h8p7--------------7-8-10-8\7/8------
B|/8--------------5\3/5------8--------------------------5\3/5
G|-----------------------------7-5\4/5-7-5-------------------

e|----14-------12---------------------------
B|/10----15-/8----13--13-12-13-12-----------
G|-------------------------------12---------
D|---------------------------------12-10\9--
A|----------------------------------------10..i guarantee this is how it goes

+2 reply
pinkfloyder1000 85 wrote on October 23 2006, 05:19 pm

Pink Floyd Net, you are WRONG, stop posting that false tab, that is not how the solo goes

guest
You may want to rate the tab now too:
select rating
Please do not post tabs as comments. Select "correction" instead!