Oops, an error
Loading. Please wait.
We have an official Mother tab made by UG professional guitarists. Check out the tab »
×
234,645 views 270 this week
33 commentsread comments
1 2 3 4 5
x 163
add to favorites
×
Save as Personal and add changes to this tab that will be seen only by you. Learn more ›
×
You can save this tab as Personal to edit and correct it or add notes. All changes will be seen only by you. Learn more »
save as personal
new!
launch autoscroll
font size
0
reset
how to read this tab
guitar tuner
backing track
0:00
0:00
Autoscroll
slow
fast
+/-
esc
set tempo
stop
Chords:
     G      C       G*      C*     D      F
E|-3------0------3------0------2------1--|
B|-3------1------3------1------3------1--|
G|-0------0------0------0------2------2--|
D|-0------2------0------0h2—0------3-----|
A|-2------3------0h2—3------x------3-----|
E|-3------3------3------3------x-------1-|

G                                              C   C*  G   G*
Mother do ya' think they'll drop the bomb?
G                                              C   D   G
Mother do ya' think they'll like my song?
C                                               G
Mother do ya' think they'll try to break my balls?
D        C                               G         G*
Ooooh-ah. Mother should I build the wall?

G                                     C   C*  G   G*
Mother should I run for president?
G                                       C   C*  D   G   G*
Mother should I trust the government?
C                                               G   G*
Mother will they put me in the firing line?
D          C                      G        G*
Ooooh-ah, is it just a waste of time?

G                            C
Hush now baby, baby don't you cry.
F                              C
Mamma's gonna make all of your nightmares come true.
F                            C
Mamma's gonna put all of her fears into you.
F                                 C
Mamma's gonna keep you right here under her wing.
F                            C
She wont let you fly, but she might let you sing.
F                            C   G
Mamma's gonna keep baby cozy and warm.
D    C
Ooooh-babe,
D    C
Ooooh-babe,
D         C
    Ooooh-babe, of course Mamma's gonna help build the wall.

Solo:

B =  bend   H = hammer on   P = pull off / = slide.


E|--------------------------------------------------------------|
B|-----13b-13b-13p12-13-----------------------------------------|
G|--12--------------------------------5---5p4-------------------|
D|----------------------14p13-14--------------------------------|
A|-------------------------------2/7----7------5---3/2-3-3b-3---|
E|--------------------------------------------------------------|

E|--------------------------------------------10-12b-10-8-10b-8-----|
B|------------------------------13------------10--------9-----------|
G|-------12h14-14b-14b-14-14p12---------------11--------9-----------|
D|--3/14----------------------------14p13-14------------------------|
A|------------------------------------------------------------------|
E|------------------------------------------------------------------|


E|-8p7-8p7----------------------------------------------------------|
B|----------8-------------------------------------------------------|
G|-------------7-5/4------------------------------------------------|
D|-------------------5----------------------------------------------|
A|------------------------------------------------------------------|
E|------------------------------------------------------------------|

G                                   C                G
Mother do ya' think she's good enough            for me?
G                              C              D G
Mother do ya' think she's dangerous          to me?
C                                    G
Mother will she tear your little boy apart?
D          C                            G
Ooooh-ah, Mother will she break my heart?

G                             C
Hush now baby, baby don't you cry.
F                                C
Mamma's gonna check out all your girlfriends for you.
F                      C
Mamma won't let anyone dirty get through
F                     C
Mamma's gonna wait up until you get in
F                     C
Mama will always find out where ya' been
F                              C    G
Mamma's gonna keep baby healthy and clean
D     C
Ooooh-babe,
D     C
 Ooooh-babe,
D               C                        G
    Ooooh-babe, you'll always be baby to me
G                              C
Mother did it need to be so high?

Well thats the tab, the right one, email me at cheese_man330@hotmail.com if u want to or 
anything to say. its easy mmmmk'ayyy
Suggest correction
comments
print report bad tab
33 comments total. Showing first comments.
0 reply
count dragula 10 Mar 04, 2005 07:00 PM

The chords are dead on,nice.

+2 reply
Slayer2 72 Nov 16, 2005 09:06 AM

awesom TAB, iv been looking for a good mother TAB. keep up the good work.

0 reply
sonofamonkey10 10 Feb 13, 2006 04:20 PM

I think instead of just a D chord, it might be D/F#. Atleast this sounds better on my guitar. Give it a try.

guest
Wanna post a correction for this tab? Suggest correction