Oops, an error
Loading. Please wait.

Mother Chords

version 4
version 4

Whole song

Interactive

Video

109,753 views 15 this week
5 commentsread comments
1 2 3 4 5
x 14
add to favorites
launch autoscroll
font size
0
reset
transpose
0
reset
display chords
guitar tuner
×
Best way to learn
"Mother"
Autoscroll
slow
fast
+/-
esc
set tempo
stop
[Verse 1]

G                                       C       D G
Mother do you think they'll drop the bomb?       ^ quick change
G                                        C      D G
Mother do you think they'll like this song?
C                                               G
Mother  do you think they'll try to break my balls?

D         C                                  G
Ohhhh..   Ahhhh.. Mother should I build a wall?

G                               C               D G
Mother should I run for president?
G                                   C           D G
Mother should I trust the government?
C                                         G
Mother will they put me in the firing line?
D         C                                         G
Ohhhh...  Ahhhhh.. Mother is it just a waste of time?
(movie version)    Mother am I really dying?


[Chorus]

G                         C
Hush now baby don't you cry.
F                             C
Mama's gonna make all of your nightmares come true
F                           C
Mama's gonna put all of her fears into you,
F                                 C
Mama's gonna keep you right here, under her wing,
F                              C
She won't let you fly, but she might let you sing,
F                       C        G
Mama's gonna keep baby cozy and warm.

D         C
Ohhhh...  Babe,
D         C
Ohhhh...  Babe,
D            C                                       G
Ohh... Babe, of course mama's gonna help build the wall.


[Solo]

e|-------------------------------------------------------------------------------|
B|------13>(14)----13>(14)>13>12-------------------------------------------------|
G|--12-----------------------------14>13>14--------------------------------------|
D|--------------------------------------------------5------5--4------------------|
A|--------------------------------------------2/7-------7--------5---3>2--3vvv---|
E|-------------------------------------------------------------------------------|

e|-------------------------------------------------------12>(14)==>12>10----|
B|-------10>(12)=======>10--8--10>(13)---8------------x---------------------|
G|--2/7--------------------------------------9>8>9--x-----------------------|
D|--------------------------------------------------------------------------|
A|--------------------------------------------------------------------------|
E|--------------------------------------------------------------------------|

e|---------10>(12)==>10>8--8>7--8>7----------------------------------|
B|-----x-----------------------------8-------------------------------|
G|--x------------------------------------7---6---4-------------------|
D|---------------------------------------------------5vvvvv\---------|
A|-------------------------------------------------------------------|
E|-------------------------------------------------------------------|


[Verse 2]

G                                    C                    G
Mother do you think she's good enough..                 for me?
G                                    C                    G
Mother do you think she's dangerous..                   to me?
C                                       G
Mother will she tear your little boy apart?
D         C
Oohhhh..   Aaahhh...
G                             C
Mother will she break my heart?


[Chorus 2]

G                          C
Hush now baby don't you cry.
F                                  C
Mama's gonna cheak out all of your girlfriends for you,
F                    C
Mama won't let anyone dirty get through,
F                    C
Mama's gonn wait up, untill you get in,
F                         C
Mama will always find out just where you've been,
F                       C                G
Mama's gonna keep baby, healthy and clean.

D            C
Ooohhhh...  Baby,
D            C
Ooohhhh...  Baby,
D       C       G
Ooohhhh baby, you'll always be baby to me.


[Outro]

G                           C
Mother did it need to be so high?



************************************

| x  Dead note
| >  Legato
| /  Slide up

************************************
Suggest correction
comments
print report bad tab
5 comments total. Showing first comments.
0 reply
Pink_Floyd_Net 30 Feb 18, 2005 07:00 PM

That's not how the solo goes..it's more like this
e|--10~--10-8\7/8-------7h8p7--------------7-8-10-8\7/8------
B|/8--------------5\3/5------8--------------------------5\3/5
G|-----------------------------7-5\4/5-7-5-------------------

e|----14-------12---------------------------
B|/10----15-/8----13--13-12-13-12-----------
G|-------------------------------12---------
D|---------------------------------12-10\9--
A|----------------------------------------10..i guarantee this is how it goes

0 reply
mickbraidstar 10 Aug 09, 2008 07:46 PM

yeah its pretty close but had to change a few things,but not bad!!!!

0 reply
guitardude257 10 Nov 03, 2008 08:27 AM

can some 1 help me out with the strumming?

guest
You may want to rate the tab now too:
select rating
Wanna post a correction for this tab? Suggest correction