Oops, an error
Loading. Please wait.

On The Turning Away Bass Tab

version 1
version 1

Whole song

Interactive

3,798 views 12 this week
no commentswrite comment
1 2 3 4 5
please rate
add to favorites
launch autoscroll
font size
0
reset
guitar tuner
Tab Pro tools
  • play this tab
  • loop segment
  • change instrument
  • show fretboard
  • metronome
×
Best way to learn
"On The Turning Away"
Autoscroll
slow
fast
+/-
esc
set tempo
stop
Contributor
-----------------------------------------------------------------------------
                      ON THE TURNING AWAY - Pink Floyd
-----------------------------------------------------------------------------

Tabbed by: Matt Broback
E-mail: 37hambone@gmail.com

Tuning: E A D G

. = accent note
t = 1/32 note


INTRO   x12
|----------|
|:--------:|
|:--------:|
|----------|


VERSE 1
|----------------|------------------|----------------|----------------|
|----------------|------------------|----------------|----------------|
|------------3---|5h7-----------5---|----3-----------|-7~~~~\-3-------|
|3---------------|------------------|3---------------|------------3---|

|----------------|----------------|----------------------|
|-2--------------|------------2---|5:--------------------|
|------------3---|--------3-------|4:5-------------------|
|--------3-------|-3--------------|------3---------------|

|----------------|-------------------|----------------|----------------|
|----------------|2--1/2h5p2-----4---|5---------------|----------------|
|-------.----3---|-------------------|----3---.3------|-7-77-7\3-------|
|3------33-------|-------------------|--------3-------|------------3--3|

|-----------------|-----------------|---------------0-------|
|-----------------|-----------------|5:4--.5-----0h2----5-4-|
|--/7-77~\----3---|--------3~~~/7---|4:---5-----------------|
|3--------3-------|-3---------------|-----------------------|


SOLO 1
|-----------------|---------------------|--2-------------|------------------|
|2-------20-0-----|--------001/2----1/25|02--------------|--------0020------|
|------/5-----3---|----2/33--------3----|----0-------0-2-|3-----23----0--0h2|
|-----------------|---3-----------------|-----------3----|------------------|

|2-----------------|-2--7h9---------|----------12p11~~~\|----------------|
|-----------------2|0-0-------------|-------------------|----7/9---------|
|----0-2-3----02/3-|----------------|-------------------|----------------|
|------------------|----------------|-------------------|----------------|

|--------------------|
|5:------------------|
|4:---12\5/7---------|
|----------------2220|


VERSE 2
|----------------|-------------------|----------------|-------.--------|
|----------------|---1/2h5p2-----0---|----------------|-2--2--0--------|
|-------.----3---|-------------------|----33-.3-------|--------3-------|
|3------33-------|0------------------|3------3--------|------------3---|

|----------------|----------------.|---.-------.----|-----------------------------|
|----------------|------------2--/2|0--05------05---|5:-0h2h5p2-------------------|
|-7-77~~\----3---|--------3--------|----------------|4:--------5p2-------.--------|
|--------3-------|-3--3------------|----------------|-------------3------33---3-2-|


OUTRO SOLO 
|----------------|-----------------2/4220|----------------|----------------|
|-----.1/2-------|---1/2h5p2-------------|2------/2---0---|------------4540|
|-----3------3---|-----------------------|------.---------|-------.--------|
|0---------------|0----------------------|------0---------|3------33-------|

|----------------|-------/774---4--|------------------|----------------|
|2-----/52-------|-----------757-75|-------.---5------|----------------|
|------------3---|-----------------|-------25/7---55--|-----.---020--0-|
|----------------|0----------------|0---------------7\|3----32/3---23-2|

                             tttt                          
|----------------|---.---.-----74---|------------------|-----------------|
|---------------.|--/2--/22--0---775|------------------|-----------------|
|---.-----023---3|------------2-----|7--.---.---24/5-5\|---.--/52-020--0-|
|0--00--03-------|0---0-------------|---00--0023-------|3--33----3---23-2|

|---------------------------|--------/4447p4------|------.----------|----------------|
|---1/2h5p2------------.-.--|--0h2----------7-----|-----/222----0000|----------------|
|------------.---22/3333/5p3|----------------/520-|---.--------2----|---.---.-020--0-|
|0-----------0023-----------|0----0--------------3|0--00----023-----|3--33--33---23-2|

|----------------|--------.----------|-------------------|------------------|
|----------------|-------/220--------|-------------------|------------------|
|---.-------23333|---.-------200-3/50|---.-------23/5--5\|--.------01/20--0-|
|0--00---023-----|0--00---------3----|0--00--0023--------|3-333---3-----23-2|

                               tt
|---.------------|----------0---------|---.--------------|----------------------|
|---2------------|---------2-20-------|---2--2-----------|--/5---55-55/75-455/74|
|-----------23-3-|---.---/5----20-----|-----------23/5-55|---------5-----5------|
|0---0---023-----|0--00----------33/53|0---0---023-------|3---33/---------------|

|-----------------|---------------------|------------------|
|-----------------|------1/2h5p2--------|------------------|
|-----------23--3\|---------------------|-----------23/5-5-|
|00000000023------|000000-------00000000|00000000023-------|
comments
We did not receive enough feedback on this tab! Please rate:
print report bad tab
1 2 3 4 5
I want to post or [tab]
guest
You may want to rate the tab now too:
select rating
Please do not post tabs as comments. Select "correction" instead!