Oops, an error
Loading. Please wait.

On The Turning Away Live Tab

version 2
version 2

Solo

6,736 views 15 this week
1 commentread comment
1 2 3 4 5
x 3
add to favorites
launch autoscroll
font size
0
reset
how to read this tab
guitar tuner
Autoscroll
slow
fast
+/-
esc
set tempo
stop
Help us to improve Ultimate-Guitar.com Take our survey!
×
Author
Pink Floyd
On The Turning Away Live (Solo)
Delicate Sound Of Thunder

Notation:
b(17) = bend to appropriate tone, ex. 17th fret
r(15) = release bend to appropriate tone, ex. 15th fret
15b(17)r(15) = bend string at 15th fret to get 17th fret tone then
release bend from 17th fret tone to 15th
p = pull off
h = hammer on
AH = artificial harmonic

Note: Not to time; vibrato left out, listen to recording for appropriate timing and 
vibrato / whammy bar use.

|-----------------------------12-----------------------------------|
|------------15b(17)-15p12-15----12---------(AH)-------------------|
|-----------------------------------------0-2-2b(3)r(2)p0----------|
|--------------------------------------/2-----------------2--------|
|------------------------------------------------------------------|
|-2B(3)--2---------------------------------------------------------|

|------------------------------------------------------------------|
|-12H15-15B(17)---15B(17)R(15)--15--12----15--------(AH)-----------|
|--------------------------------------14--------2b(4)r(2)---------|
|------------------------------------------------------------------|
|------------------------------------------------------------------|
|------------------------------------------------------------------|

|------------------------------------------------------------------|
|--------------------------------------3---------------------------|
|-2p0---0------------0----2-----0h2b(4)-r(2)p0---------------------|
|-----2---2p0-2--------2----2------------------2-------------------|
|------------------------------------------------------------------|
|------------------------------------------------------------------|

|------------------------------------------------------------------|
|-12h15-15b(17)---15b(17)r(15)-15--12------------------------------|
|-------------------------------------14-12------------------------|
|------------------------------------------------------------------|
|---------------------------------------------0-2-------0----------|
|------------------------------------------\3-----3-2-3---2--------|

|------------------------------------------------------------------|
|------------------------------------------------------------------|
|---9---9-9\-------------------------------------------------------|
|---9---9-9\-------------------------------------------------------|
|---7---7-7\-------0-2-2/(3)---0h2-2-------0-2---------------------|
|-0-0-0-0-0----\3-----------------------3--------------------------|

|------------------------------------------------------------------|
|-12h15-15b(17)r(15)-15----15b(17)--15p12h15-----------------------|
|---------------------------------------------14b(16)r(14)-12\-----|
|------------------------------------------------------------------|
|------------------------------------------------------------------|
|------------------------------------------------------------------|

|----17b(19)-17-15-14b(15)r(14)------------------------------------|
|-15----------------------------15-15b(17)---15(hold)p12-----------|
|--------------------------------------------------------12--------|
|------------------------------------------------------------------|
|------------------------------------------------------------------|
|------------------------------------------------------------------|

|------------------------------------------------------------------|
|--------------------------15-------------------(AH)---------------|
|----12-14----12-14b(16)16----r(14)p12------2b(4)r(2)p0------------|
|-14-------14--------------------------14---------------2----------|
|------------------------------------------------------------------|
|------------------------------------------------------------------|

|------------------------------------------------------------------|
|-------(AH)-------------------------------------------------------|
|-0h2p0-2b(4)----2-0-4b(5)r(4)\(2)-2-0-0---------------------------|
|------------------------------------------------------------------|
|---------------------------------------------0-2-------0----------|
|-------------------------------------------3-----3-2-3---2--------|

|------------------------------------------------------------------|
|---------------------------------------------(AH)-----------------|
|---9---9-9\---------------------------------2b(4)r(2)p0-2p0-------|
|---9---9-9\-------------------------------------------------2p0---|
|---7---7-7\-------0-2-2/(3)---0h2-2/(7)\(2)-----------------------|
|-0-0-0-0-0----/3--------------------------------------------------|

|------------------------------------------------------------------|
|------------------------------------------------------------------|
|------------------------------------------0-----------------------|
|------------------------------------------0-----------------------|
|-2p0---------------------------0-2/(5)-5--------------------------|
|-----3p0-2p0-\(dive w/bar)-0-3------------3-----------------------|

|-15p12----14p12----15p12----14p12----15(17)-15p14-14b(15)r(14)----|
|-------12-------12-------12-------12------------------------------|
|------------------------------------------------------------------|
|------------------------------------------------------------------|
|------------------------------------------------------------------|
|------------------------------------------------------------------|

|------------------------------------------------------------------|
|-15-------------15----12h15---------------------------------------|
|----14--12/(14)-------------14p12--14b(16)r(14)p12b(14)-----------|
|------------------------------------------------------------------|
|------------------------------------------------------------------|
|------------------------------------------------------------------|

|------------------------------------12-14-15-17b(19)-17b(19)r(17)-|
|-pre-scoop w/bar /12--15p12-15b(17)-------------------------------|
|------------------------------------------------------------------|
|------------------------------------------------------------------|
|------------------------------------------------------------------|
|------------------------------------------------------------------|

|-17-15-15----3p0---------3p0-------------------15-----------------|
|-----------------3p0---------3p0----------------------------------|
|---------------------2p0---------2p0---14b(16)----pb16r(14)p12----|
|------------------------------------------------------------------|
|------------------------------------------------------------------|
|------------------------------------------------------------------|

|---------15-------------------------------------------------------|
|------------------------------------------------------------------|
|-14b(16)----pb16r(14)-12-14b(16)r(14)p12-----12-14-14b(15)-14-----|
|-----------------------------------------14-----------------------|
|------------------------------------------------------------------|
|------------------------------------------------------------------|

|------------------------------------------------------------------|
|-----------------------------------(AH)--------(AH)-----(AH)------|
|-12----------------------------2b(4)r(2)b(4)--0h2b(4)-V-r2-V------|
|----14-12---------------------------------------------------------|
|----------14-12\(10)-12p10----------------------------------------|
|---------------------------12-------------------------------------|

|------------------------------------------------------------------|
|-(AH)-------------------------------------------------------------|
|--0-VV(V)---------------------12-12-12-12--11-11--12--------------|
|------------------------------12-12-12-12--12-12--12--------------|
|---------------0-2-------0----------------------------------------|
|-------------3-----3-2-3---2--------------------------------------|

|------------------------------------------------------------------|
|------------------------------------------------------------------|
|-12-12-12-12--11-12-12----12-12-12-12--11-11--12------------------|
|-12-12-12-12--12-12-12----12-12-12-12--12-12--12------------------|
|------------------------------------------------------------------|
|------------------------------------------------------------------|

|------------------------------------------------------------------|
|------------------------------------------------------------------|
|-12-12-12-12--11-12-12----12-12-12-12--11-11--12------------------|
|-12-12-12-12--12-12-12----12-12-12-12--12-12--12------------------|
|------------------------------------------------------------------|
|------------------------------------------------------------------|

|--------------------------------------------15b(17)-15-14b(15)----|
|-----------------------------------12h15p12-----------------------|
|-12-12-12-12--14--14--12---14b(16)--------------------------------|
|-12-12-12-12--12--12--12------------------------------------------|
|------------------------------------------------------------------|
|------------------------------------------------------------------|

|-14--------------------12--------------------12-------------------|
|----15b(17)--15p12h15-----15b(17)--15p12h15-----12----------------|
|------------------------------------------------------------------|
|------------------------------------------------------------------|
|------------------------------------------------------------------|
|------------------------------------------------------------------|

|------------------------------------------------------------------|
|---(AH)----------------3------------------------------------------|
|-2b(4)r(2)p0----0-2/(4)---4\(2)p0---------------------------------|
|-------------2--------------------2----0-2-4-4b(5)r(4)-2-2-0-0----|
|------------------------------------------------------------------|
|------------------------------------------------------------------|

|------------------------------------------------------------------|
|--------------------------------15b(17)--15b(17)------------------|
|----------------------------------------------------9\------------|
|----------------------------------------------------9\------------|
|---0-2-------0--------------------------------------7\------------|
|-3-----3-2-3---2---0-(dive w/bar)-------------------0-------------|
Suggest correction
Give kudos to tab author, rate the tab!
1 2 3 4 5
comments
print report bad tab
1 comment total.
0 reply
juhaniahtiluo 10 Dec 30, 2013 12:29 PM

perfect! spot on

guest
You may want to rate the tab now too:
select rating
Wanna post a correction for this tab? Suggest correction