Oops, an error
Loading. Please wait.

Shine On You Crazy Diamond Part I - V tab

version 1
version 1

Whole song

Interactive

149,407 views 279 this week
no commentswrite comment
1 2 3 4 5
x 12
add to favorites
×
Save as Personal and add changes to this tab that will be seen only by you. Learn more ›
×
You can save this tab as Personal to edit and correct it or add notes. All changes will be seen only by you. Learn more »
launch autoscroll
font size
0
reset
how to read this tab
guitar tuner
backing track
0:00
0:00
edit
Autoscroll
slow
fast
+/-
esc
set tempo
stop
Author
Unregistered
e---------------0------------------------------0----|
B------6-----------------------------6--------------|
G---------0----(0)------------------------0---(0)---|
D--8-----------(8)---------------8------------(8)---|
A---------------------------------------------------|
E---------------------1>3>1>3-----------------------|

e--8-------10------8------0------8------10-------8--------|
B----6--------6------6------6------6-------6--------6-----|
G---------------------------------------------------------|
D-------8-------8------8------8------8-------8---------8--|
A---------------------------------------------------------|
E---------------------------------------------------------|

e-0--------8--------10------8-------0------8--------10-------8------------------|
B----6--------6---------6-----6-------6-------6--------6--------6---------------|
G-------------------------------------------------------------------------------|
D-------8--------8--------8------8-------8-------8--------8-------8----------3--|  x3
A-------------------------------------------------------------------------------|  
E-------------------------------------------------------------------------------|

e--6---6------6-------5-------6-------6--------6------5------6---------|
B---------------8-------8-------8--------8-------8------8-------8------|
G----------------------------------------------------------------------|
D---------8--------8-------8-------8--------8-------8-----8--------8---|
A----------------------------------------------------------------------|
E----------------------------------------------------------------------|

e--5-------5-------4-------5--------6-----5--------4-----5---------|
B----7-------7-------7--------7--------7-----7--------7-----7------|
G------------------------------------------------------------------|
D------7--------7-------7--------7-------------7---------------7---|
A------------------------------------------------------------------|
E------------------------------------------------------------------|

e--0-------8--------10--------8-------0-------8-------10--------8------------------|
B----6-------6----------6-------6-------6--------6--------6-------6----------------|
G----------------------------------------------------------------------------------|
D------8--------8---------8--------8-------8--------8--------8-------8--------8----|
A----------------------------------------------------------------------------------|
E----------------------------------------------------------------------------------|

e--6------6------5------6------6------6-----5-------6---------|
B----8------8------8-------8-----8-------8-----8------8-------|
G-------------------------------------------------------------|
D------8-------8------8------8------8-------------8------8\7--|
A-------------------------------------------------------------|
E-------------------------------------------------------------|

e--5-----5-----4-----5-----6------5-----4-----5---------|
B-----7----7-----7-----7-----7-------7-----7-----7------|
G-------------------------------------------------------|
D------------7-----7-----7-----7--------------------7---|
A-------------------------------------------------------|
E-------------------------------------------------------|

e--0-------8-------10------8------0--------8-------10--------8---------------------|
B-----6-------6-------6------6-------6-------6---------6--------6------------------|
G----------------------------------------------------------------------------------|    repeat
D-------8-------8--------8------8-------8-------8---------8---------8--------------|   and
A----------------------------------------------------------------------------------|     fade
E----------------------------------------------------------------------------------|

                        Shine On You Crazy Diamond
                                 part 4
                            by Pink Floyd

two guitars

e-----------------------------------------------------|
B--13>(15)vvvvvvvvv--(15)>13>11--13>(15)vvvvvvvvvvv---|
G---5>(7)vvvvvvvvvv---(7)>5>3-----5>(7)vvvvvvvvvvvv---|
D-----------------------------------------------------|
A-----------------------------------------------------|
E-----------------------------------------------------|

e-----------------------------------------13--15>(16)--15vvvvv\--|
B--(15)>13--11--13--14--15vvvv---15--16----6---8>(9)----8vvvvv---|
G---(7)>5----3---5---6---7vvvv----7---8--------------------------|
D----------------------------------------------------------------|
A----------------------------------------------------------------|
E----------------------------------------------------------------|

e----------------------------------------------------------------------------|
B--15>(16)-----15-------16>(18)--16>15---13vvv-------------------------------|
G---7>(8)-------7--------8>(10)---8>7-----5vvv----12>10vvvvvv----------------|
D--------------------------------------------------------------------4vvvvv--|
A----------------------------------------------------------------------------|
E-----------------------------------------------3>(5)>3--1vvvv---1---2vvvvv--|

Shine On You Crazy Diamond
part 3
by Pink Floyd


[verse]

(from "Remember when you were young....)

e-------------------------------------3-------|
B----------------------------------3--3-------|
G-----3-----5>(7)>5----------------3----------|
D--5-----5------------4---------3-------------|
A-------------------------------1----------5--|
E---------------------------------------------|


(from "Shine on....)

e--------------------------------------------------|
B--------------------------------------------------|
G--------------------------------------------------|
D--8---8---5---3---3-------------------------------|
A--6---5---3---1---3---3>(5)>3---------------------|
E------------------1-------------1vvvv---1--2vvvv--|


(from "Now there's a look....)

e-----------------------------------------------|
B----6>(8)>6---------2------------3--3--3-------|
G-------------5>(7)---------------3--3--3-------|
D-----------------------------3---3--3----------|
A-----------------------------1-------------5\--|
E-----------------------------------------------|

(from "Shine On....")

e-------------------------13--13--13--10--8/10--1--|
B-------------------------13--13--13--10--8/10--1--|
G---8---8---5---3----------------------------------|
D---6---5---3---1----------------------------------|
A--------------------1-----------------------------|
E--------------------------------------------------|


(from "You were cought in the...)
             and
(from "Well you wore out your...)


e-----------------------------------------------------------------|
B-----------------------------------------------------------------|
G-----3--5--5>(7)>5-------3--5--5>(7)>5>3-----3--5--5>(7)>5-------|
D--5-------------------4-------------------3------------------2---|
A-----------------------------------------------------------------|
E-----------------------------------------------------------------|


e-----------------------------------------------------------------------1---2---|
B-----------------------------------------5-----------------6-----------------3-|
G-----------------8-----8--------------6-----6-----------7-----7----------------|
D-----------------8>10--8-----------5------------------8----------8--0----0-----|
A--3--5--6--8/10-----------10\7--7----------------7--8--------------------------|
E-------------------------------------------------------------------------------|


interlude is part 4


(from "You reached for the ...)
e---------------------------------------------------------3-------------|
B----------------------11--13>(15)>13-----------------3---3---3---------|
G-----------------------3---5>(7)>5--->3--------------3-------3---------|
D---5-----------------------------------------4---3---------------------|
A-------------------------------------------------1------------------5--|
E---3-------------------------------------------------------------------|


(from "Shine On....")
e------------------------------------------------------------|
B------------------------------------------------------------|
G------------------------------------------------------------|
D---8---8---5---3--------------------------------------------|
A---6---5---3---1--------3---3>(5)--3------------------------|
E--------------------1---1-------------3>(5)---1vvvvvv--1/2--|

(from "threatened by shodows...)
e-------------------------------------------------------------|
B---6>(8)>6>(8)>6--6-----------------------------3-----3------|
G---------------------5>(7)---3>5>3vvvvvv--------3--3--3------|
D---------------------------------------------3--3--3-----3---|
A---------------------------------------------1---------------|
E-------------------------------------------------------------|

(from "Shine on .....")
e------------------------13--13--13--10--8\1--|
B------------------------13--13--13--10--8\1--|
G---------------------------------------------|
D---8--8--5--3--------------------------------|
A---6--5--3--1--------------------------------|
E-----------------1---------------------------|


Shine On You Crazy Diamond
part 2


e---------------0----------------|
B------6-------------------------| x4
G----------0---(0)---------------|
D---8----------(8)---------------|
A--------------------------------|
E--------------------------------|

  C                                              Gm7
e-------------0----------------------------------------------------0---|
B------6-----------------------------------------------------6---------|
G---------0-----------------------------------------------------0------|
D---8-----------------------------------------------------8------------|
A-----------------3--3--3--3--3--3--3--3--3--3/5-----------------------|
E-----------------1--1--1--1--1--1--1--1--1--1/3-----------------------|

           Eb      D                                     Gm7
e------------------------------------------------------------------------|
B------6-----------------------------------------------------------------|
G----------0---8------------8---7----------------------------------------|
D--8-----------8------------8---7----------------------------------------|
A-------------------------------------3--3--3--3--3--3--3--3--3--3/5-----|
E-------------------------------------1--1--1--1--1--1--1--1--1--1/3-----|

e------------------0---|
B-------6--------------|
G------------0---------|
D---8------------------|
A----------------------|
E----------------------|


[solo]

e-------------------------------------3---------------------------------------|
B----------------------------------3-----3------------------------------------|
G---17>(19)>17---15--17----------------------5>(7)----(7)>5>3------5---3------|
D------------------------17\------------------------------------5----------5--|
A-----------------------------------------------------------------------------|
E-----------------------------------------------------------------------------|

e--18>15-----18---17>(18)--17vvv---------------------------------------------|
B--15----15--15---------------------18>15--18>(20)----18>(20)>18>15--18vvvv--|
G----------------------------------------------------------------------------|
D----------------------------------------------------------------------------|
A----------------------------------------------------------------------------|
E----------------------------------------------------------------------------|

e--18>15------18>15-----18>(20)---18>(20)>1815--18------------------|
B---------15--------15------------------------------18>(20)--18\----|
G-------------------------------------------------------------------|
D-------------------------------------------------------------------|
A-------------------------------------------------------------------|
E-------------------------------------------------------------------|

e--------------------------------------------------------------------------|
B--------------------------------------------------------------------------|
G--15>(17)>(19)>15--12--15>(16)vvv-12------6\5--3>(4)----------------------|
D-------------------------------------------------------5------------------|
A-----------------------------------------------------------4\3---1--3/5---|
E--------------------------------------------------------------------1/3---|

e--------------------------6--------------------------------------|
B-----------------------------5/6--8/-------(11)>10>8------8/-----|
G------3--------------6>7------------------------------10---------|
D------3--3/5vvvvvv-----------------------------------------------|
A--4/5------------------------------------------------------------|
E-----------------------------------------------------------------|

e-------------------------------------------------------------------------|
B-------------------------------------------------------------------------|
G---15--17>(19)>17>(19)----17>(19)>(20)vvvvv----17>(19)>(20)---17>(20>17--|
D-------------------------------------------------------------------------|
A-------------------------------------------------------------------------|
E-------------------------------------------------------------------------|

e--------------------------------15----15-----15--------------15---15--|
B----------------------------18>(20)------18>(20)>18>15---18>(20)------|
G----------------------------------------------------------------------|
D--16---16>17>16\14>16--16---------------------------------------------|
A----------------------------------------------------------------------|
E----------------------------------------------------------------------|

e--17>(18)--17>(18)---17-----------------------------------------------|
B-------------------------18>(20)----(20)>18>15---18-------------------|
G-----------------------------------------------------17>(19)=====>17--|
D----------------------------------------------------------------------|
A----------------------------------------------------------------------|
E----------------------------------------------------------------------|

e---------------------------------------------------------------------------|
B---------------------------------------------------------------------------|
G--(19)>17>15-----------------3---5---5>(7)>(8)>5---(8)>5--3--5--5>(7)vvvv--|
D--------------17\---------5------------------------------------------------|
A---------------------------------------------------------------------------|
E---------------------------------------------------------------------------|

e-----------------------------------------------------------------------|
B----------3----6-------------------------------------------------------|
G---5>(7)-----------5>(8)==========>5--(7)>5>3-----5--5>(7)vvvvvvvv>5---|
D-----------------------------------------------------------------------|
A-----------------------------------------------------------------------|
E-----------------------------------------------------------------------|


[keyboard solo]

Gm                                       Cm
e------------------------------------------------------------|
B---------5\3-------------------5\3-------------------10\8---|
G------------------------------------------------------------|
D---3/5---5\3--------------3/5--5\3-------------8/10--10\8---|
A---------------------------------------5--------------------|
E------------------------------------6-----------------------|

Gm                 Eb      D     Eb             D    Gm    Cm   Gm    D7#9
e----------------------------------------------------------------------------|
B--------5\3-----8------7------8------11\---7---------------------------6----|
G-----------------------------------------------------------------------5----|
D---3/5--5\3-----8------7------8------11\---7---------------------------4----|
A-----------------------------------------------------------------------5----|
E----------------------------------------------------------------------------|


[solo]

e------15------------15---18>15-------------------3----------------0----------|
B--15-------18>(20)--------------18>(20)\------3------6-----------------------|
G---------------------------------------------------------5>(7)----5>3--5--3--|
D-----------------------------------------------------------------------------|
A-----------------------------------------------------------------------------|
E-----------------------------------------------------------------------------|

e-----------------------------------------------------------18-----------------|
B--------------------------------------11----11-----18>(20)-----18>(20)vvvv18\-|
G----------15>(17)>15>(19)>15----11/12----12-----------------------------------|
D--5vvvv-----------------------------------------------------------------------|
A------------------------------------------------------------------------------|
E------------------------------------------------------------------------------|

e-------6>5--------------------------------------------------------------|
B------------6/8\--------------------------------------------------------|
G--6/7--------------(17)>15>(19)>15--------15--17>(18)>17>15--17--17>15--|
D------------------------------------15/17-------------------------------|
A------------------------------------------------------------------------|
E------------------------------------------------------------------------|

e-------------------------------3----------------------------------------------|
B----------------------------------6--------------------3----------------------|
G--17--17--17>15--17>(19)vvvv\--------5>(7)---5--3>(5)--3---3---5----3\2-------|
D---------------------------------------------------------5-------5------3-----|
A--------------------------------------------------------------------------3/5-|
E------------------------------------------------------------------------------|

e-----------------------------------------------15-------------------------|
B-------------------------------------18>(20)--------18>(20)-----18>(20)---|
G--------3---------15>(17)>15>(19)>0--------------------------0------------|
D-----------3>5------------------------------------------------------------|
A--4/5---------------------------------------------------------------------|
E--------------------------------------------------------------------------|

e--15--18>15--18>(20)vvv-----18>(20)>18>15--18---------------------------------|
B-----------------------------------------------18>(20)------------------------|
G-------------------------0-----------------------------------15--17--17>(19)--|
D---------------------------------------------------------17-------------------|
A------------------------------------------------------------------------------|
E------------------------------------------------------------------------------|

e--------------------------------------------------------------------|
B--------------------------------------------------------------------|
G--17>(20)---17>(20)>17---------------------------------14--15vvvv\--|
D-------------------------16vvvv---16>17>16\14--16--17--16--17vvvv\--|
A--------------------------------------------------------------------|
E--------------------------------------------------------------------|

e-----3-----------------------------------------------------------|
B--3----6---------------------------------------------------------|
G----------5>(7)vvvv>5---(8)>5>3---5--3----3----------------------|
D----------------------------------------5----5-------------------|
A------------------------------------------------5\3--1--3/5--5\--|
E-----------------------------------------------------------------|



************************************************

legato                      7>6>7
bend(and release)           7>(8)>7
hold bend                   =
vibrato                     v
slide                       /

************************************************


Shine On You Crazy Diamond Part 1

e-------------------------------------------------------------------|
B----18>(20)!--18--18>(20)!-----------------------------------------|
G-----------------------------------15--17--17>(19)--17--17>(19)!---|
D-------------------------------17----------------------------------|
A-------------------------------------------------------------------|
E-------------------------------------------------------------------|


e-----------------------------------------------------------------------------|
B-----------------------------------------------------------------------------|
G---(19)>17p15--17---17>(19)!---17-17>(19)>(18)--14h15h14----14---------------|
D----------------------------------------------------------17---15-15----15!--|
A---------------------------------------------------------------------17------|
E-----------------------------------------------------------------------------|


e--------------------------------------------------------------------------------|
B--------------------------------------------------------------------------------|
G-----------------------------------------------------------------------17>(19)--|
D-17>(20)--17>(20)!=====(20)=(20)-15-17-17>(20)---17>(20)>17--15--17-17!---------|
A--------------------------------------------------------------------------------|
E--------------------------------------------------------------------------------|


e-------------------------15--18--18>(20)--18!\--------------------------------|
B--18--18(20)!---18>(20)-------------------------------------------------------|
G-------------------------------------------------(19)>17p15!------------------|
D-----------------------------------------------------------------------15-----|
A-------------------------------------------------------------------17---------|
E------------------------------------------------------------------------------|


e--------------------------------------------------------------------------|
B--------------------------------------------------------------------------|
G---------------------------------------------------------(19)>17--15--17--|
D---17!--17>(19)--17>(20)!====(20)==(17)---15--17!-------------------------|
A--------------------------------------------------------------------------|
E--------------------------------------------------------------------------|


e--------------------------------15----------------------------------------------|
B-------------------18---18>(20)----18>(20)!\--18>(20)>18-15---------------------|
G-17>(19)---17>(19)------------------------------------------17>(19)!-17>(19)>17-|
D--------------------------------------------------------------------------------|
A--------------------------------------------------------------------------------|
E--------------------------------------------------------------------------------|


e----------------------------------------------------------------------------|
B---------------------------------------------------------------18-----------|
G-15-17--17!\----------15----(19)>17-15-17-17>(19)!---17>(19)-------17>(19)!-|
D---------------15>17--------------------------------------------------------|
A----------------------------------------------------------------------------|
E----------------------------------------------------------------------------|


e---------15---18!-----18--20>(22)!---18>(20)>18--17--------------|
B-18>(20)----------15----------------------------------18----20---|
G-----------------------------------------------------------------|
D-----------------------------------------------------------------|
A-----------------------------------------------------------------|
E-----------------------------------------------------------------|

**********************************

!            vibrato
>            bend or slide
(if it's a bend, the note to bend up to will be in parenthesis)
=                    hold bend
17>(20)>17   bend and release

**********************************

            
            
Suggest correction
Creating personal tab
Creating personal tab
You can edit any tab online and save it as your Personal.

You can edit, replace or remove any tab part or add personal notes – all changes will be seen only by you.

Personal tabs can be accessed anytime from any device, even offline.
Learn more »
comments
print report bad tab
guest
Wanna post a correction for this tab? Suggest correction