Oops, an error
Loading. Please wait.

Take It Back Chords

version 1
version 1

Whole song

22,902 views 63 this week
2 commentsread comments
1 2 3 4 5
excellent!
x 12
add to favorites
launch autoscroll
font size
0
reset
transpose
0
reset
simplify chords
display chords
guitar tuner
Autoscroll
slow
fast
+/-
esc
set tempo
stop
Help us to improve Ultimate-Guitar.com Take our survey!
×
"Take It Back" by: Pink Floyd

Not seen this tabbed very often so heres my little attempt at 
what you might call an accoustic version. (strummed)
I know the chord names are wrong but they were the best I could come
up with with only Guitar Pro for reference...

Enjoy! :)

P.S. The (G) on the first 'back' of each chorus isnt really,
necessary... i.e. to taste

      (G)             (Cadd9)
e:-----3-------|  e:------3------|
B:-----3-------|  B:------3------|
G:-------------|  G:-------------|
D:-------------|  D:------2------| 
A:-----2-------|  A:------3------|
E:-----3-------|  E:-------------|
     (Em/C)             (G*)
e:------3------|  e:------3------|
B:-------------|  B:-------------|
G:-------------|  G:-------------|
D:------2------|  D:-------------| 
A:------3------|  A:------2------|
E:-------------|  E:------3------|
      (C)             (Em/Cadd9)
e:-------------|  e:------3------|
B:-----1-------|  B:------1------|
G:-------------|  G:-------------|
D:-----2-------|  D:------2------| 
A:-----3-------|  A:------3------|
E:-------------|  E:-------------|
    (Csus2)            (Gsus4)
e:-----3-------|  e:------3------|
B:-----1-------|  B:-------------|
G:-------------|  G:-------------|
D:-------------|  D:------3------| 
A:-----3-------|  A:------3------|
E:-------------|  E:-------------|




(G)                       (Cadd9)   (Em/C)     (G*)
Her love rains down on me, easy      as     the breeze
  (G)                         (Cadd9)         (Em/C)      (G*)
I listen to her breathing, it sounds like the waves on the sea
      (C)                     (Em/Cadd9)
I was thinking all about her, burning with rage and desire
        (G)                             (Cadd9) (Em/C)  (G*)
We were spitting into darkness, and the earth   was on fire
         (Cadd9)  (G)             (Csus2) 
She could Take it back, She might take it back
  (G)
Someday

(G)              (Cadd9)     (G)   (Gsus4)                         (G)
So I spied on her, I lied to her, I made promises I could not keep.
                                (Cadd9)  (Em/C)   (G*)
And I hear her laughter rising, rising   from the deep.
    (C)                             (Em/Cadd9)
And make her prove her love to me, I take all that I can take.
      (G)                       (Cadd9) (Em/C)   (G*)
And I push her to the limit, to see if  she will break.
         (Cadd9)  (G)             (Csus2)
She might take it back, She could take it back
  (G)
Someday

(G)                           (Cadd9)   (Em/C)   (G*)
Now I have seen the warnings, screaming from all sides
        (G)                  (Cadd9)   (Em/C)  (G*)
It isnt easy to ignore them, God knows I've    tried
(C)                              (Em/Cadd9)
All this temptation, you know it turned my faithfull eyes
       (G)                         (Cadd9)  (Em/C)   (G*)
Till I couldn't see the danger, or hear the rising   tide
          (Cadd9)  (G)           (Csus2)
She could take it back, she will take it back
  (G)
Someday
         (Cadd9)  (G)           (Csus2)
She will take it back. She will take it back
  (G)
Someday
         (Cadd9)  (G)           (Csus2)     (Gsus4) 
She will take it back. She will take............... it back
    (Cadd9)   G
Someday 

Suggest correction
comments
print report bad tab
2 comments total.
0 reply
darrennie 20 wrote on January 28 2014, 06:13 pm

Thank You. Love this song, so hope the transcription does it justice.

0 reply
PreDrag Pro 42 wrote on May 20 2014, 01:10 pm

That (Gsus4) is played like this:
e:------3------|
B:------3------|
G:-------------|
D:-------------|
A:------3------|
E:------3------|

guest
You may want to rate the tab now too:
select rating
Wanna post a correction for this tab? Suggest correction