Oops, an error
Loading. Please wait.
We have an official The Thin Ice tab made by UG professional guitarists. Check out the tab »
×
1,549 views 18 this week
no commentswrite comment
1 2 3 4 5
x 6
add to favorites
×
Save as Personal and add changes to this tab that will be seen only by you. Learn more ›
×
You can save this tab as Personal to edit and correct it or add notes. All changes will be seen only by you. Learn more »
launch autoscroll
font size
0
reset
guitar tuner
edit
Autoscroll
slow
fast
+/-
esc
set tempo
stop
Author
Difficulty
-----------------------------------------------------------------------------
                                          Artist - Pink Floyd
                                         *********************
                                          Song - The Thin Ice   
                                         *********************
                                        Album - The Wall (1979)    
                                       *************************
                                          Tabbed By - Ayreon77
                                         **********************
-----------------------------------------------------------------------------
Tuning = Standard


     Mother loves....    And the sea.... 
G|------------------|------------------|
D|------------------|------------------|
A|-3----------------|-3----------------|
E|------5----1----3-|------5----1----3-|

   Ohhhh  Ohhhhhh                          Ohhhh  Ohhhhhh
G|------------------------|--------|-----|------------------------|---|-------12-12-12-12-11-11-|
D|-------5--5--3--3--5--5-|------7-|-7---|-------5--5--3--3--5--5-|---|-------------------------|
A|-3--3-------------------|----7---|-----|-3--3-------------------|---|-------------------------|
E|------------------------|-5------|---5-|------------------------|-5-|-------------------------|

   Ohhhh  Ohhhhhh
G|---------------------------------|------------|
D|-------5--5--3--3--2--0--2--4--5-|-5--7--9----|
A|-3--3----------------------------|----------3-|
E|---------------------------------|------------|


01:03
   If you should go skating     On the thin............  Modern life                  
G|--------------------------|--------------------------|------------------|
D|--------------------------|-7--5--3------------------|----------2--3----|
A|--------------------------|--------------------------|------------------|
E|------------------5-------|--------------------------|----------------3-|

            Dragging behind you          Of a million tear stained eyes
G|-----------------------------5-4----|--------------------5--7------|
D|----------------------------------7-|-7--5--3--------3---------5---|
A|-------2--3-------------------------|------------------------------|
E|-3--5-------------------------------|------------------------------|

         Don't be surprised when a crack in the ice           Appears under your feet
G|------------------------|------------------------|-9------------------------------|
D|-5--3-------------------|-5----------------------|----7--5--3-------------2--3----|
A|-------3----------------|----3-------------------|--------------------------------|
E|------------------------|-------5----------------|------------------------------3-|

             You slip out of your depth and out of your mind   With your fear   flowing out behind you
G|---------|-------------------------------------------------|---------------------------------------|
D|-5--7--9-|-------------------------------------------------|---------------------------------------|
A|---------|----------3-----------2---------0----------------|------0--------------------------------|
E|---------|-------------------------------------------------|-----------1-------------------------3-|


----------------------------
01:56
SOLO
*****
G|---------------|-----|---------------------------|-------------------------|---------|
D|---------------|-5-7-|-------------s-------------|-------------------------|---------|
A|-7--5--8--7----|-----|-7--5--8--7-7\-------------|-7--5--8--7---7--9--9-10-|-3~~~~~~-|
E|-------------5-|-----|----------------5----5-3-5-|-------------------------|---------|




ENJOY...............

            
            
Suggest correction
Creating personal tab
Creating personal tab
You can edit any tab online and save it as your Personal.

You can edit, replace or remove any tab part or add personal notes – all changes will be seen only by you.

Personal tabs can be accessed anytime from any device, even offline.
Learn more »
comments
print report bad tab
guest
You may want to rate the tab now too:
select rating
Wanna post a correction for this tab? Suggest correction