Oops, an error
Loading. Please wait.

Time Bass Tab

version 1
version 1

Whole song

  • ver 2 new
    It,s been 15 years since the last tab was done, an... Show more

Interactive

82,136 views 204 this week
4 commentsread comments
1 2 3 4 5
excellent!
x 27
add to favorites
launch autoscroll
font size
0
reset
guitar tuner
Autoscroll
slow
fast
+/-
esc
set tempo
stop
Help us to improve Ultimate-Guitar.com Take our survey!
×
Pink Floyd - TIME
(Mason, Gilmour, Waters, Wright)


[Verse]

    ticking away...                                                     
G|------------------------0---1--2--------------2--------2--2--|
D|-----4------2--4---4-----------------2---2--------2----------|            
A|-4----------------------------------0------------------------|
E|-------------------------------------------------------------|

G|------------------------------------------------------------------------|
D|-2---2-----0--2----0--2---2----4------4---------------------------------|
A|---------------------------------------------4-----4-----------4----4---|
E|------------------------------------------------------2-----2-----------|

G|--------------------------0----1--2-----------------2---------(2)--(2)--|
D|-4----4----2--4-----4---------------------2---2---------(2)--2----------|
A|-----------------------------------------0----------------------------0-|
E|------------------------------------------------------------------------|
                                                          
G|------------------------------------------------------------------|       
D|-2----2--(0)--2-2---2--3-----4------------------------------------|
A|----------------------------------------4---4---------------------|        
E|------------------------------------------------2-----2--4----2---|


 [Chorus]

   tired of lying..
G|--------------------------------------------------------------------------|
D|-0------0---0------------------------2---0------0---0---------------------|
A|--------------------0------0---0---------------------------0------0---0---|
E|--------------------------------------------------------------------------|
                                                       
G|---------------------2---------------------|
D|-0---------0---0--------0------------------|                              
A|-------------------------------4------4--4-|        play next parts on       
E|-------------------------------------------|          first verse only
       2nd time go to (+)

G|--------------------------------------------------|
D|-------------------------------------------2---3--|
A|-2------2---2-----------------------2-------------|                       
E|---------------------0------0---4-----------------|


[guitar solo]

G|-------------------------------0------1---2--------------------2--------2--2-|
D|-4----4------2---4------4---------------------------------2--------2---------|
A|---------------------------------------------------0---4---------------------|
E|-----------------------------------------------------------------------------|

G|-----------------------------------------------------------------------------|
D|-----2------0---2------2---3------4-------4----------------------------------|
A|-------------------------------------------------4----4--------------4---4---|
E|-0--------------------------------------------------------2------2-----------|

G|----------------------------------------------------2-----------------------2|
D|-4----4-----------------------------------------2--------2-------------------|
A|----------4-----4------------------------0------------------0-----0--0-------|
E|--------------------2------2--3----4-----------------------------------------|

G|-----------------------------------------------------------------------------|
D|-2----2------0---2------2---3-------4-------4--------------------------------|
A|---------------------------------------------------4----4--------------4----4|
E|------------------------------------------------------------2--------2-------|

G|------------------------------0-----1---2----------------2-------2---2-|
D|-4---4-------2---4------4----------------------------2-------2---------|
A|-----------------------------------------------0---4-------------------|
E|-----------------------------------------------------------------------|

G|---------------------------------------------------------------------------|
D|-------2------2---2------2------2---3-----4-------4------------------------|
A|---------------------------------------------------------4-------4---------|
E|----------------------------------------------------------------------2----|

G|------------------------------------------------0-----1---2---------------|
D|---------------------4---4------2---4------4------------------------------|
A|----------0---4--------------------------------------------------0---4----|
E|-------2------------------------------------------------------------------|

G|----------2---------------------2-----------------------------------------|
D|------2------x----------2---4-------2----2------0---2--------2---3--------|
A|-----------------0---4----------------------------------------------------|
E|--------------------------------------------------------------------------|

G|--------------------------------------------------------------------2-----|
D|-----4-------------------------------------------0-------0---0--------0---|
A|-------------4--4-------4----------0--2--4--------------------------------|
E|----------------------------2----2----------------------------------------|

G|----------2---------------------------2------------------------------------|
D|----------------------------------------------0-----------0----0---------2-|
A|-0------------------0----0-------------------------------------------------|
E|---------------------------------------------------------------------------|

G|--------------------------------------0----------0----0-------------0---|
D|---0----------0----0----------------------------------------------------|
A|------------------------------------------------------------------------|
E|------------------------------------------------------------------------|  
        
G|-----------------------------------------------------------------------|
D|----4------------4-----4---------------2---------------2-----2---------|
A|-----------------------------------------------------------------------|
E|-----------------------------------------------------------------------|

G|--------------------------------------|
D|-----2-----------2-----------------2--|            go to second verse
A|-------------------------------2------|                and chorus
E|---------------------------4----------|

   (+)
   time is gone...
G|----------------------------------------------------------------------------|
D|--------------------------------------------------------------------------2-|
A|-2--------------------2-------------------2-------------2-------------------|
E|----------------------------------------------------------------------------|

G|----------------------------------------|
D|---------------------2-----2------2-----|
A|----------------------------------------|
E|----------------------------------------|

************************************

| x    Dead note
| (n)  Mean play only on the second verse

************************************
Suggest correction
What's this?
You can suggest a correction to this tab. Community and Mods will review your correction and vote to approve or reject it.
comments
print report bad tab
4 comments total. Showing first comments.
+2 reply
bassplayerwilly 27 wrote on May 21 2006, 12:23 pm

awesome tab

+1 reply
8ate8 13 wrote on March 18 2012, 10:07 am

It's a pretty accurate tab, except the whole end of the song is missing.

+1 reply
blackmoumoune 17 wrote on October 16 2013, 06:57 pm

The end is the same as Breathe.

guest
You may want to rate the tab now too:
select rating
Please do not post tabs as comments. Select "correction" instead!