Oops, an error
Loading. Please wait.

Us And Them Bass

version 1
version 1

Whole song

Interactive

21,564 views 36 this week
5 commentsread comments
1 2 3 4 5
x 12
add to favorites
×
Save as Personal and add changes to this tab that will be seen only by you. Learn more ›
×
You can save this tab as Personal to edit and correct it or add notes. All changes will be seen only by you. Learn more »
save as personal
new!
launch autoscroll
font size
0
reset
guitar tuner
backing track
0:00
0:00
Autoscroll
slow
fast
+/-
esc
set tempo
stop
Us and Them
By Pink Floyd
tabbed by Dan

    24 seconds             intro
G|--------------|-----||-------------------------------------------------|
D|--------------|-----||*--------7--7--7-----------7--7--7---------------|
A|--------------|-----||*--5-----------------5-----------------5---------|
E|--------------|-----||-------------------------------------------------|

G|------------------------------------------------------------------------|
D|7--7--7-----------7--7--7-----------7--7--7-----------7--7--7-----------|
A|------------5-----------------5-----------------5-----------------5-----|
E|------------------------------------------------------------------------|

G|------------------------------------------------------------------------|
D|---7--7--7-----------7--7--7/12-----12--12--12-----12\---------7--7-----|
A|---------------5-----------------------------------------5--------------|
E|------------------------------------------------------------------------|

                verses
G|----------||--||--------------------------------------------------------|
D|7--------*||--||*--------7--7--7-----------7--7--7-----------7--7--7----|
A|---------*||--||*--5-----------------5-----------------5----------------|
E|------5---||--||--------------------------------------------------------|

G|------------------------------------------------------------------------|
D|---------7--7--7-----------7--7--7-----------7--7--7-----------7--7-----|
A|---5-----------------5-----------------5-----------------5--------------|
E|------------------------------------------------------------------------|

G|---------------------------7--------------------------------------------|
D|7--7-----------7--7--7--7-----7-----------7--7-----7--7-----------7-----|
A|---------5--------------------------5-----------------------5-----------|
E|------------------------------------------------------------------------|

G|----------||------------------------------------------------------------|
D|7--7--7--*||--------7--7-----7-----------7--7-----7-----------7--7------|
A|---------*||--5--------------------5--------------------5---------------|
E|----------||------------------------------------------------------------|

                       chorus
G|---------7--------|-----------------------------------------------------|
D|---7-----------7--|-----------------------------------------------------|
A|------------------|--5-----4-----2-----2-----2-----2-----2-----2--------|
E|------------------|-----------------------------------------------------|

G|------------------------------------------------------------------------|
D|------------------------------------------------------------------------|
A|2-----0-----------------------------3-----------2-----2-----0--2--2-----|
E|------------3-----3-----3-----3-----------------------------------------|

                                             after first two chorus go back to verse
G|-------------------------------------------------------------|
D|-------------------------------------------------------------|
A|---0-----2-----2-----2-----0---------------------------------|
E|---------------------------------3-----3-----3-----3--3------|

  on 3 go to coda        CODA           segue into Any Colour You Like
G|------|-----------------------------------------------------------------|
D|------|-----------------------------------------------------------------|
A|---3--|--------------------------------3--------------------------------|
E|------|--------3-----3-----3-----3--------------------------------------|

************************************

| *  Natural harmonic
| /  Slide up
| \  Slide down

************************************
Suggest correction
comments
print report bad tab
5 comments total. Showing first comments.
+1 reply
R8:31b 1,731 Sep 18, 2008 10:01 PM

idk this doesnt seem like waters style

0 reply
lennyonbass 10 Sep 03, 2009 09:15 AM

perfect

0 reply
thomas.lausen 37 Mar 16, 2015 09:15 AM

00:00
|--------------|
|--------------|
|--------------|
|--------------|

intro 00:34 // 01:09

||-------------------------------------------------------------------------|
||*--------7--7--7-----------7--7--7-----------7--7--7-----------7--7--7---|
||*--5-----------------5-----------------5-----------------5---------------|
||-------------------------------------------------------------------------|


|--------------------------------------------------------------------------|
|----------7--7--7-----------7--7--7-----------7--7--7-----------7--7--7---|
|----5-----------------5-----------------5-----------------5---------------|
|--------------------------------------------------------------------------|


01:02 First time
|--------------------------------------------||
|/12---12--12--12---12\---------------------*||
|---------------------------5---------------*||
|--------------------------------------------||

01:36 Second time
|--------------------------------------------||
|/12---12--12--12---12\---------7--7--7------||
|---------------------------5----------------||
|--------------------------------------------||


verse 1 01:42 // verse 2 02:16

||-------------------------------------------------------------------------|
||*--------7--7--7-----------7--7--7-----------7--7--7-----------7--7--7---|
||*--5-----------------5-----------------5-----------------5---------------|
||-------------------------------------------------------------------------|

(Only the first time)
|---------------------------------------------------------------------(7)--|
|----------7--7--7-----------7--7--7-----------7--7--7-----------7--7---7--|
|----5-----------------5-----------------5-----------------5---------------|
|--------------------------------------------------------------------------|

First time 02:09
|---------------------------------------||
|----------7--7--7-----------7--7--7---*||
|----5-----------------5---------------*||
|---------------------------------------||

Second time 02:43
|---------------------------------------||
|----------7--7--7----------------------||
|----5-----------------5-------5---4----||
|---------------------------------------||


chorus 1 02:50

||---------------------------------------------------||
||*-------------------------------------------------*||
||*--2-----2-----2-----2--0---------------3-----3---*||
||----------------------------3-----3----------------||


verse 3 03:16 // verse 4 03:49

||-------------------------------------------------------------------------|
||*--------7--7--7-----------7--7--7-----------7--7--7-----------7--7--7---|
||*--5-----------------5-----------------5-----------------5---------------|
||-------------------------------------------------------------------------|


|--------------------------------------------------------------------------|
|----------7--7--7-----------7--7--7-----------7--7--7-----------7--7--7---|
|----5-----------------5-----------------5-----------------5---------------|
|--------------------------------------------------------------------------|

First time 03:43
|----------------------------------------||
|/12---12--12--12---12\-------7--7--7---*||
|-------------------------5-------------*||
|----------------------------------------||

Second time 04:14
|---------------------------------------||
|----------7--7--7----------------------||
|----5-----------------5-------5---4----||
|---------------------------------------||


chorus 2 04:22

||---------------------------------------------------||
||*-------------------------------------------------*||
||*--2-----2-----2-----2--0---------------3-----3---*||
||----------------------------3-----3----------------||


Piano solo 04:48

||----------------------------------

guest
Wanna post a correction for this tab? Suggest correction