Oops, an error
Loading. Please wait.

Us And Them Tab

version 2
version 2

Whole song

Interactive

7,256 views 3 this week
no commentswrite comment
1 2 3 4 5
accurate
x 3
add to favorites
launch autoscroll
font size
0
reset
how to read this tab
guitar tuner
Tab Pro tools
  • play this tab
  • loop segment
  • change instrument
  • show fretboard
  • metronome
×
Best way to learn
"Us And Them"
Autoscroll
slow
fast
+/-
esc
set tempo
stop
Pink Floyd - Us & Them


E |---------5-------|---------5-------|---------7-------|---------7-------|
B |-----5-----5---5-|-----5-----5---5-|-----7-----7---7-|-----7-----7---7-|
G |---7---7-----7---|---7---7-----7---|---9---9-----9---|---9---9-----9---|
D |-0-----0---------|-0-----0---------|-0---------------|-0---------------|
A |-----------------|-----------------|-----------------|-----------------|
E |-----------------|-----------------|-----------------|-----------------|


E |---------9-------|---------9-------|---------7-------|---------7-------|
B |-----10----10--10|-----10----10--10|-----8-----8---8-|-----8-----8---8-|
G |---10--------10--|---10--------10--|---7---7-----7---|---7---7-----7---|
D |-0-----0---------|-0-----0---------|-0-----0---------|-0-----0---------|
A |-----------------|-----------------|-----------------|-----------------|
E |-----------------|-----------------|-----------------|-----------------|


E |---------5-------|---------5-------|-|-----2---2--------|-----------------|
B |-----5-----5---5-|-----5-----5---5-|-|-----3---3-----3-2|-3---------------|
G |---7---7-----7---|---7---7-----7---|-|-----4---4-----4-2|-4---------4---4-|
D |-0---------------|-0-----0---------|-|-4---4---4-----4-2|-4--------4-4-4-4|
A |-----------------|-----------------|-|-2----------------|-2-------2---0---|
E |-----------------|-----------------|-|------------------|-----------------|


E |-----------------|-----------------|-----2---2--------|-----------------|
B |-------7-----7---|-----------------|-----3---3-----3-2|-3---------------|
G |-------7-----7---|-----5---5---5555|-----4---4-----4-2|-4---------4---4-|
D |-------7-----7---|-5---5---5---5555|-4---4---4-----4-2|-4--------4-4-4-4|
A |-5---5-------5---|-3-----3---3---33|-2----------------|-2-------2---0---|
E |-3-----------3---|-----------------|------------------|-----------------|


E |-----------------|-----------------|-|
B |-------7-----7---|-5---------------|-|
G |-------7-----7---|-5---------------|-|
D |-------7-----7---|-5---------------|-|
A |-5---5-------5---|-3---------------|-|
E |-3-----------3---|-----------------|-|


E |-----5-----0---0-|
B |-------5----3---3|
G |---7------2---2--|
D |-0-------0-------|
A |-------------4---|
E |-----------------|

Thats pretty much it.
Thanks.
-Tom Collins.
comments
We did not receive enough feedback on this tab! Please rate:
print report bad tab
1 2 3 4 5
I want to post or [tab]
guest
You may want to rate the tab now too:
select rating
Please do not post tabs as comments. Select "correction" instead!