Oops, an error
Loading. Please wait.

Us And Them Tab

version 3
version 3

Whole song

Interactive

129,658 views 237 this week
2 commentsread comments
1 2 3 4 5
x 38
add to favorites
launch autoscroll
font size
0
reset
how to read this tab
guitar tuner
Autoscroll
slow
fast
+/-
esc
set tempo
stop
Help us to improve Ultimate-Guitar.com Take our survey!
×
Author
-----------------------------------------------------------------------------
                             US AND THEM - Pink Floyd
-----------------------------------------------------------------------------
Tabbed by:Doug Weier
Email:icemanrulesworld@aol.com

Tuning: Low to High

e|--------------5----------|--------------5----------|
B|--------5--------5-----5-|--------5--------5-----5-|
G|-----7-----7--------7----|-----7-----7--------7----|
D|--0----------------------|--0----------------------|
A|-------------------------|-------------------------|
E|-------------------------|-------------------------|

e|----------------7----------|--------------7----------|
B|----------7--------7-----7-|--------7--------7-----7-|
G|-----7/9-----9--------9----|-----9-----9--------9----|
D|--0------------------------|-------------------------|
A|---------------------------|--0----------------------|
E|---------------------------|-------------------------|

e|-----------------9---------|-12p11p10p9-------------------|
B|---------10---------10-----|------------10----------10----|
G|-----10------10---------9--|---------------9-----9------9-|
D|--0------------------------|------------------0-----------|
A|---------------------------|------------------------------|
E|---------------------------|------------------------------|
                                           
e|--------------7--------7p0-|--------------7------10--7-|
B|--------8--------8---------|--------8-------8----------|
G|-----7-----7--------7------|-----7-----7------7--------|
D|--0------------------------|--0------------------------|
A|---------------------------|---------------------------|
E|---------------------------|---------------------------|               

e|--5-----------5----------|--------------5----------|
B|--5-----5--------5-----5-|--------5--------5-----5-|
G|--7--7-----7--------7----|------7-----7--------7---|
D|--0----------------------|--0----------------------|
A|-------------------------|-------------------------|
E|-------------------------|-------------------------|

e|--------------5----------|--------------5----------|
B|--------5--------5-----5-|--------5--------5-----5-|
G|-----7-----7--------7----|-----7-----7--------7----|
D|--0----------------------|--0----------------------|
A|-------------------------|-------------------------|
E|-------------------------|-------------------------|

e|----------------7----------|--------------7----------|
B|----------7--------7-----7-|--------7--------7-----7-|
G|-----7/9-----9--------9----|-----9-----9--------9----|
D|--0------------------------|--0----------------------|
A|---------------------------|-------------------------|
E|---------------------------|-------------------------|

e|-----------------9------------|-----------------12p11p10p9--------|
B|---------10---------10-----10-|---------10------------------10----|
G|-----10------10---------9-----|-----10------10------------------9-|
D|--0---------------------------|--0--------------------------------|
A|------------------------------|-----------------------------------|
E|------------------------------|-----------------------------------|
                                           
e|--------------7------------|--------------7----------|
B|--------8--------8-----8---|--------8--------8-----8-|
G|-----7-----7--------7------|-----7-----7--------7----|
D|--0------------------------|--0----------------------|
A|---------------------------|-------------------------|
E|---------------------------|-------------------------| 

e|--------------5----------|-----------------------|
B|--------5--------5-----5-|--------5--------------|
G|-----7-----7--------7----|-----7-----7-----------|
D|--0----------------------|--0-------------0------|
A|-------------------------|--------------------4--|
E|-------------------------|-----------------------|


e|---------------------------------------|
B|------3--------3-2------3-------3----2-|
G|-----4--4-----4-4------4--4----4----2--|
D|----4--------4--------4-------4----2---|
A|--2--------2--------2--------2----0----|
E|---------------------------------------|

e|---------------------3-|
B|------7-------7------5-|
G|-------7------7-7----5-|                                                   
D|-----7------7---7----5-|
A|----5------5----5----3-|
E|--3-------3----------3-|

numbers 3 away are half notes
numbers 2 spaces away are q notes
numbers one space away are 8th note and
numbers right next to each other are 16th notes

************************************

| p  Pull-off
| /  Slide up    

************************************
Suggest correction
comments
print report bad tab
2 comments total.
+1 reply
ao3699 10 Sep 24, 2013 04:57 PM

my favorite song

+1 reply
Sounderleaf 10 Dec 05, 2013 01:40 AM

this is right from the man itself http://www.youtube.com/watch?v=sz34-rsPv2I

guest
You may want to rate the tab now too:
select rating
Wanna post a correction for this tab? Suggest correction