Oops, an error
Loading. Please wait.

Wish You Were Here Tab

version 1
version 1

Whole song

615,557 views 975 this week
35 commentsread comments
1 2 3 4 5
x 303
add to favorites
launch autoscroll
font size
0
reset
how to read this tab
guitar tuner
Autoscroll
slow
fast
+/-
esc
set tempo
stop
Help us to improve Ultimate-Guitar.com Take our survey!
×
Difficulty
novice
e|------------------------------------------------------------------------|
B|----------3------5-------3----------------------------------------------|
G|---2/4---------------4----------4p2p0-----------------------------------|
D|---------------------------------------0---------------0-0--------------|
A|----------------------------------------------------/2------------------|
E|------------------------------------------------------------------------|

e|--3/5-----5\3-----------------------------------------------|
B|--3/5-----5\3-------3/5-----5\3----------3/5-----5\3--------|
G|--------------------2/4-----4\2p0--------2/4-----4\2p0---0--|
D|------------------------------------------------------------|
A|------------------------------------------------------------|
E|------------------------------------------------------------|

e|--------------------------------------------------------------------------|
B|-----------3---5-------pbr5p3-----3-------------3--5----------------------|
G|---2/4-------4------------------4---2------4b------------4b--2------------|
D|--------------------------------------------------------------------------|
A|--------------------------------------------------------------------------|
E|--------------------------------------------------------------------------|

e|-----------------------------------------------------------------------|
B|-----------3---5-------5b--br5--3---5----------------------------------|
G|----2/4------4---------------------------2------4b---br(4)----2--------|
D|-----------------------------------------------------------------------|
A|-----------------------------------------------------------------------|
E|-----------------------------------------------------------------------|
(Then Return To G...)

*****************************

/   Slide UP
\   Slide Down
p   Pull off
b   Bend
br  Bend relase
pbr Pre bend relase

*****************************
Suggest correction
comments
print report bad tab
35 comments total. Showing first comments.
+5 reply
criuxis 10 Mar 12, 2009 02:33 PM

Hey thanks man! nice tab it is 100% correct to my opinion. althoug i didn't learn it in 5 minutes ;)

(misspelled words??? sorry i'm dutch :P)

thanks C

+2 reply
Aguamento 10 Apr 19, 2009 02:11 PM

A+!! I've been looking everywhere for a good tab for the intro solo and this is it! Thx!!

+7 reply
_person_ 10 Jul 15, 2009 09:21 PM

you owe me ten bucks
good tab though

guest
You may want to rate the tab now too:
select rating
Wanna post a correction for this tab? Suggest correction