Oops, an error
Loading. Please wait.
We have an official Wish You Were Here tab made by UG professional guitarists. Check out the tab »
×

Wish You Were Here solo tab

6,055 views 60 this week
no commentswrite comment
1 2 3 4 5
x 4
add to favorites
×
Save as Personal and add changes to this tab that will be seen only by you. Learn more ›
×
You can save this tab as Personal to edit and correct it or add notes. All changes will be seen only by you. Learn more »
launch autoscroll
font size
0
reset
how to read this tab
guitar tuner
backing track
0:00
0:00
edit
Autoscroll
slow
fast
+/-
esc
set tempo
stop
Author
Difficulty
-------------------------------------------------------------------------------
                             Wish You Were Here - Pink Floyd
-------------------------------------------------------------------------------
Tabbed by: alexwhorn
E-mail: alexander.w.horn@gmail.com

I've been trying to learn this solo for a little while and I haven't been able
to find a tab that sounds correct so I gave up looking and just listened to a 
recording of it and figured it out myself. Feel free to make corrections in the
comments or email me if I made a mistake. This is my first tab so take it easy
on me. 

Warning! If you are playing this on acoustic some of the bends will be
really tough on your fingers for a while. Say goodbye to your calluses.

Tuning: Standard

e|---------------------------------------10/12-10-10-------------------------|
B|-----10b12sb12sb12sb12b10-8-10b12b10---------------10b12b10-8-10b12--------|
G|-------------------------------------7-------------------------------------|
D|---------------------------------------------------------------------------|
A|---------------------------------------------------------------------------|
E|---------------------------------------------------------------------------|

e|---------------------------------------------------------------------------|
B|-----10h12--------------8-10b12b10-8---------------------------------------|
G|-----------12/14-9h12-9--------------9-7-----------------7-7---------------|
D|-----------------------------------------7\5-7-5-7-5-7/9-------------------|
A|---------------------------------------------------------------------------|
E|---------------------------------------------------------------------------|

e|-------------------------------------------10/12-10-10---------------------|
B|-------8-10b12b10-8---8-------8-10b12b10-8-------------10-8-10-8-10-8------|
G|-----9--------------9---9-7-9----------------------------------------------|
D|---------------------------------------------------------------------------|
A|---------------------------------------------------------------------------|
E|---------------------------------------------------------------------------|

e|---------------------------------------------------------------------------|
B|-----10b12-10-8-8b10sb10---------------------------------------------------|
G|-------------------------9---7---7---7---7-6b7b6--------------------0------|
D|---------------------------9---9---9---9---------7----------------2--------|
A|---------------------------------------------------------------------------|
E|---------------------------------------------------------------------------|


************************************

| /   Slide up
| b   Bend
| h   Hammer-on
| \   Slide down
| sb  Stay Bent

************************************

            
            
Suggest correction
Creating personal tab
Creating personal tab
You can edit any tab online and save it as your Personal.

You can edit, replace or remove any tab part or add personal notes – all changes will be seen only by you.

Personal tabs can be accessed anytime from any device, even offline.
Learn more »
comments
print report bad tab
guest
You may want to rate the tab now too:
select rating
Wanna post a correction for this tab? Suggest correction