Oops, an error
Loading. Please wait.

Wish You Were Here Tab

version 1
version 1

Whole song

Video

821,652 views 297 this week
54 commentsread comments
1 2 3 4 5
x 95
add to favorites
launch autoscroll
font size
0
reset
how to read this tab
guitar tuner
Autoscroll
slow
fast
+/-
esc
set tempo
stop
Help us to improve Ultimate-Guitar.com Take our survey!
×
WISH YOU WERE HERE
                            As recorded by Pink Floyd
                    (From the 1975 Album WISH YOU WERE HERE)

Words and Music by Roger Waters and David Gilmore
Transcribed by gozer@earthling.net

          C/G                 D/F#                  Am                  Am/E
      3 3 2 0 1 0          2 0 0 2 3 2          x 0 2 2 1 0          0 0 2 2 1 0

           G                    D
      3 2 0 0 3 3          x x 0 2 3 2

 [Intro]
   Slow Rock Q=60
  4/4
         Gtr I
e|-------------||-----3-3-3---3-3-----|
B|-------------||-----3-3-3---3-3-----|
G|-------------||---0-0-0-0-0-----0---|
D|-----------0-||-2---------2-------2-|
A|-------0h2---||---------------------|
E|-------------||---------------------|


e|-----3---3-(3)-3---------|-----3-3-3-(3)-3---------|
B|---3-3---3-(3)-3---------|---3-3-3-3-(3)-3---------|
G|---0-0---0-(0)-----------|---0-0-0-0-(0)-0---0-----|
D|-0-----0---------------0-|-2---------------2---2---|
A|-------------------0h2---|-------------------------|
E|-------3---------3-------|-------------------------|


e|-----3---3-(3)-3---------|---3-3-3-3-3-3-3-------|-----3-3-3-(3)-3-3-3-------|
B|---3-3---3-(3)-3---------|---3-3-3-3-3-3-3-------|-----3-3-3-(3)-3-3-3-------|
G|---0-0---0-(0)-----------|---0-0-0-0-0-0-0-------|-----0-0-0-(0)-0-0-0-------|
D|-0-----0---------------0-|-2---------------2-0---|---2-----2-(2)-----------0-|
A|-------------------0h2---|---------------------2-|-0-------------------0h2---|
E|-------3---------3-------|-----------------------|---------------------------|


e|---3-3-3-3-3-3-3-------|-------3-------3---------------|-3-----3---3-----3-3-|
B|---3-3-3-3-3-3-3-------|-------3-------3-----3-(3)---3-|-3-3-3-3---3-----3-3-|
G|---0-0-0-0-0-0-0-------|-------0-------------0-(0)-0-0-|-0-0-0-0---0-----0-0-|
D|-2---------------2-0---|---2-2---2-(2)---2-0-------0---|-0-0---0---0---0-0-0-|
A|---------------------2-|-0-------------------0h=2------|-2-2-------2-----2-2-|
E|-----------------------|-------------------------------|-3-------3-3-3-----3-|


e|-3-----3-3-3---------|---------3-3-3-----3-3---------|
B|-3-----3-3-3---------|---------3-3-3-----3-3---------|
G|-0-----0-0-0---------|---0-----0-0-0-0-------0-------|
D|-0---0-0-0-0-------0-|-2-------------2---------2-----|
A|-2-----2-2-----0h2---|-------------------------------|
E|-3-3-----3---3-------|-------------------------------|
|
 |                       Gtr II
e|---------------------|-------------------------------|
B|---------------------|---------3-----5---3-----------|
G|---------------------|---2s3s4---------4-------4p2p0-|
D|---------------------|-------------------------------|
A|---------------------|-------------------------------|
E|---------------------|-------------------------------|


e|-------3---3---(3)-3---------|
B|-----3-3---3---(3)-3---------|
G|-----0-0---0---(0)-----------|
D|--0------0-----------------0-|
A|-----------------------0h2---|
E|---------3-----------3-------|
|
e|-----------------------------|
B|-----------------------------|
G|-(0)-------------------------|
D|--0----------0--0------------|
A|-----------2-----------------|
E|-----------------------------|


e|---------3---3-3---(3)3-------------|-----3---3-(3)-3----------|
B|-----3---3---3-3---(3)3-------------|---3-3---3-(3)-3----------|
G|-----0---0---0-0---(0)0-----0-------|---0-0---0-(0)------------|
D|-2----------------------2-------2---|-0-----0----------------0-|
A|------------------------------------|-------------------0h=2---|
E|------------------------------------|-------3---------3--------|
|
e|---3s5-5s3--------------------------|--------------------------|
B|---3s5-5s3-3s5---5s=3-----3s5-5s3---|--------------------------|
G|-----------2s4---4s=2p==0-2s4-4s2p0-|-4-----------------4\-----|
D|------------------------------------|-5-----------------5\-----|
A|------------------------------------|--------------------------|
E|------------------------------------|--------------------------|


e|---3-3-3---3-3--3--3--------------------|
B|---3-3-3---3-3--3--3--------------------|
G|---0-0-0---0-0--0--0--------------------|
D|-2-------------------2----------0-------|
A|------------------------------------2---|
E|----------------------------------------|
|
 |           ~
e|----------------------------------------|
B|-------3---5---(5)-----5pb6r(5)p3---3---|
G|---2s4---4------------------------4-----|
D|----------------------------------------|
A|----------------------------------------|
E|----------------------------------------|


e|-----3----3--3---(3)--3-3-3-------|---3-3---3---3-3-3-3----------------------|
B|-----3----3--3---(3)--3-3-3-------|---3-3---3---3-3-3-3----------------------|
G|-----0----0--0---(0)--0-0-0-------|---0-0---0---0-0-0-0----------------------|
D|---2---------2---(2)------------0-|-2-------------------2-------0------------|
A|-0--------------------------0h2---|----------------------------------------2-|
E|----------------------------------|------------------------------------------|
|
 | ~                      ~                       ~
e|----------------------------------|------------------------------------------|
B|-------------3-5------------------|---------3---5-------5b7-(5)-5pb7r(5)p3-5-|
G|-2---4b5-(4)------4b6---2---------|---2s3s4---4------------------------------|
D|----------------------------------|------------------------------------------|
A|----------------------------------|------------------------------------------|
E|----------------------------------|------------------------------------------|


e|-------3-------------3-------------|-3--3-3---3--3-3-3-||
B|-------3-------------3-------------|-3--3-3---3--3-3-3-||
G|-------0---------------------------|-0--0-0---0--0-0-0-||
D|---2-2---2-------(2)---2-0---------|-0--0-0---0--0-0-0-||
A|-0-------------------------0h2-0---|-2--2-2---2--2-2-2-||
E|---------------------------------3-|-3--3-3-3-3--3-3-3-||
|
 | ~                ~~~
e|---------------------------------3-|-3----3---3--3-3-3-||
B|-------------------------------0-3-|-3--0-3---3--3-3-3-||
G|-2-------4b6r(4)--2------------0-0-|-0--0-0---0--0-0-0-||
D|-------------------------------0---|-0--0-----0--0-0-0-||
A|-----------------------------------|-2--------2--2-2-2-||
E|-----------------------------------|-3------3-3--3-3-3-||


[Verse]
  CGC/G       D/F#           Am   Am/EAm
  Gtrs I, II
  ||||||||||  ||||||||| | |  |  |||||||| ||
  /o////////  ///////// / /  /  //////// xo

e|-----------|--------------|----------------|
B|-----------|--------------|----------------|
G|-----------|--------------|----------------|
D|-----------|--------------|----------------|
A|-----------|--------------|----------------|
E|-----------|--------------|----------------|
|
 | Gtr III
 |                       <
e|-----------|--------------|----------------|
B|-----------|--------------|----------------|
G|-----------|----------11s=|=9---------9s=7-|
D|-----------|--------------|----------------|
A|-----------|--------------|----------------|
E|-----------|--------------|----------------|


  G               D   D/F#     C/G
   |  ||||||||||  ||||||| |||  |  | |  |    |     |  |||||
   /  //////////  /x///// ///  /  / /  /    /     /  /////

e|---------------|------------|-----------------------------|
B|---------------|------------|-----------------------------|
G|---------------|------------|-----------------------------|
D|---------------|------------|-----------------------------|
A|---------------|------------|-----------------------------|
E|---------------|------------|-----------------------------|
|
 |                                        <    <   <
e|---------------|------------|-----------------------------|
B|---------------|------------|-----------------------------|
G|-(7)-----------|------------|--9--(9)--(9)--(9)-(9)-------|
D|---------------|------------|-----------------------------|
A|---------------|------------|-----------------------------|
E|---------------|------------|-----------------------------|


[Verse]
  Am/E         G                            C/G    C/G
  ||||||||| |   |  ||||  |          |  ||   |  |   ||||||||
  ///////// /   /  ////  /          /  //   /  o   ////////

e|------------|---------------------------||----------------|
B|------------|---------------------------||----------------|
G|------------|---------------------------||----------------|
D|------------|---------------------------||----------------|
A|------------|---------------------------||----------------|
E|------------|---------------------------||----------------|
|
 |               ~~
e|------------|---------------------12----||----------------|
B|------------|--------------10s12-(12)---||-5-(5)\---------|
G|------------|-12------(12)--------------||-5-(5)\---------|
D|------------|---------------------------||-5-(5)\---------|
A|------------|---------------------------||----------------|
E|------------|---------------------------||----------------|


  D/F#                 Am    Am/E      Am    G
  |  | |  ||| |  ||||   |  || |  |  | |||||  | |      |   |  | | | | |  |  |
  /  / /  /// /  ////   /  // /  /  / ///xo  / /      /   /  / / / / /  /  /

e|--------------------|---------------------|----------------------------------|
B|--------------------|---------------------|----------------------------------|
G|--------------------|---------------------|----------------------------------|
D|--------------------|---------------------|----------------------------------|
A|--------------------|---------------------|----------------------------------|
E|--------------------|---------------------|----------------------------------|
|
 |  ~~~~~~~~~~~~~~       ~~          ~~                           ~~
e|--------------------|---------------------|-------------12-14--12------------|
B|--7--(7)----(7)-----|-17----13s12---------|--10s12-(12)------------12s10-----|
G|--7--(7)----(7)-----|-------------14------|------------------------------12--|
D|--------------------|---------------------|----------------------------------|
A|--------------------|---------------------|----------------------------------|
E|--------------------|---------------------|----------------------------------|


  D     D/F#                  C/G
   | ||||| |        | |   |   |   | |  || |  |||| |
   / x//// /        / /   /   /   / /  // /  //// /

e|---------------------------|-----------------------|
B|---------------------------|-----------------------|
G|---------------------------|-----------------------|
D|---------------------------|-----------------------|
A|---------------------------|-----------------------|
E|---------------------------|-----------------------|
|
 |                               ~~~~~~~~~~~~~
e|---------------------------|-----------------------|
B|-/7------(7)-7s5-7s5s7-7s5-|-----------------------|
G|-/7------(7)---------------|-7s9--(9)---(9)-----12-|
D|---------------------------|-----------------------|
A|---------------------------|-----------------------|
E|---------------------------|-----------------------|


  Am
   |         |  ||     |   |||
   /         /  //     /   ///

                                 Gtr I
e|-----------------------------|-3------------3-(3)---------||
B|-----------------------------|-3------------3-(3)---------||
G|-----------------------------|-0---------0--0-(0)---------||
D|-----------------------------|-0---------0--------------0-||
A|-----------------------------|-2---------2----------0h2---||
E|-----------------------------|-3--3------3--------3-------||
|
 |        ~~        ~~~~~~~                ~~~~
e|-----------------14-(14)-----|----------------------------||
B|----13-----------------------|---10s12-(12)---------------||
G|-14----14-(14)---------------|----------------------------||
D|-----------------------------|----------------------------||
A|-----------------------------|----------------------------||
E|-----------------------------|----------------------------||


  Guitar Solo
e|--------------3-3-3----------3-3-------|-----------3------3-(3)-3-------------------|
B|--------------3-3-3----------3-3-------|------3----3------3-(3)-3-------------------|
G|-------0------0-0-0---0----------0-----|------0----0------0-(0)---------------------|
D|-2--------------------2-------------2--|-0-------------0-------------------------0--|
A|---------------------------------------|----------------------------------0h==2-----|
E|---------------------------------------|---------------3----------3-----------------|
|
 | Gtr II
 |              ~~                                 ~~~~~~~~~
e|---------------------------------------|---12---10---(10)---------------------------|
B|---/12---/12-12-----(12)-10s12---------|----------------------------/12-(12)-12-12\-|
G|-----------------------------------12\-|--------------------------------------------|
D|---------------------------------------|--------------------------------------------|
A|---------------------------------------|--------------------------------------------|
E|---------------------------------------|--------------------------------------------|


e|--------3--------3-------3----(3)-3--------------|
B|----3---3--------3-------3----(3)-3--------------|
G|----0---0--------0-------0----(0)-0----0---------|
D|--2---------------------------------2-------2----|
A|-------------------------------------------------|
E|-------------------------------------------------|
|
 |                               ~~~
e|-------------------------------------------------|
B|-12---(12)-11s12s==11s12s==11s12------12s10s==8--|
G|-------------------------------------------------|
D|-------------------------------------------------|
A|-------------------------------------------------|
E|-------------------------------------------------|


e|-------3---3-(3)-3---------|--------3-3--3----3--3---3--3-----------------|
B|-----3-3---3-(3)-3---------|--------3-3--3----3--3---3--3-----------------|
G|-----0-0---0-(0)-----------|--------0-0--0----0--0---0--0-----------------|
D|-0-------0---------------0-|--2----------------------------2--0-----------|
A|---------------------0h2---|-----------------------------------------2----|
E|---------3---------3-------|----------------------------------------------|
|
 |                                                 ~~~~~~~
e|---------------------------|-------10---10\-----10-(10)---12--------------|
B|-7-------------------------|-10s12----------/12--------------15s12--------|
G|---7---------------------9-|---------------------------------------\12----|
D|-------7s9-----------------|-------------------------------------------14-|
A|---------------------------|----------------------------------------------|
E|---------------------------|----------------------------------------------|


e|--------------3--3--3--(3)-3-----3----3--------------|
B|--------------3--3--3--(3)-3-----3----3--------------|
G|--------------0--0--0--(0)-0-----0----0--------------|
D|---------2----------2--(2)-----------------------0---|
A|---0-------------------------------------0h2---------|
E|-----------------------------------------------------|
|
 |                                    ~~~~~~~~
e|-----10-12-12---12-10\-------------------------------|
B|-/12-------------------------/15---15---15---15\-----|
G|-----------------------------------------------------|
D|-----------------------------------------------------|
A|-----------------------------------------------------|
E|-----------------------------------------------------|


e|--------3--3--3--3--3-3-3-------------------|
B|--------3--3--3--3--3-3-3-------------------|
G|--------0--0--0--0--0-0-0-------------------|
D|--2------------------------2-----0----------|
A|------------------------------------------2-|
E|--------------------------------------------|
|
 |              ~~
e|-------10s11-10-----------------------------|
B|-10s12----------12\-------------------------|
G|--------------------------12s14-16s14s12-14-|
D|--------------------------------------------|
A|--------------------------------------------|
E|--------------------------------------------|


e|-------------3-----3-3--3--(3)-3-3----------|
B|-------------3-----3-3--3--(3)-3-3----------|
G|-------------0-----0-0--0--(0)-0-0----------|
D|--------2-2---------------------------------|
A|--0--------------------------------0h2-0h2--|
E|--------------------------------------------|
|
 |        ~~~             ~~~~~~~
e|--------------------------------------------|
B|-12-15-17s==15-15s13------------------------|
G|-----------------------14-(14)--------------|
D|--------------------------------------------|
A|--------------------------------------------|
E|--------------------------------------------|


[Verse]
  G                 C/G         D/F#
  Gtr I             Gtrs I, II
    |  ||||||||||   | | ||||||  |||||||||||
    /  //////////   / / //////  ///////////

e|----------------||-----------|------------|
B|----------------||-----------|------------|
G|----------------||-----------|------------|
D|----------------||-----------|------------|
A|----------------||-----------|------------|
E|----------------||-----------|------------|
|
e|----------------||-----------|------------|
B|-/15------------||-----------|------------|
G|-/16------------||-----------|------------|
D|----------------||-----------|------------|
A|----------------||-----------|------------|
E|----------------||-----------|------------|


  Am          G            D/F#FD/F#
  ||||||||||  |||||||||||  | ||||||||
  //////////  ///////////  / //o/////

e|-----------|------------|-----------|
B|-----------|------------|-----------|
G|-----------|------------|-----------|
D|-----------|------------|-----------|
A|-----------|------------|-----------|
E|-----------|------------|-----------|


  C/G        Am  E Am
  | |||||||  | |||||||||||
  / ///////  / //o////////

e|----------|--------------|
B|----------|--------------|
G|----------|--------------|
D|----------|--------------|
A|----------|--------------|
E|----------|--------------|


 [Interlude]
   Gtr I
e|-3----3-3---------||-----3-3-3---3-3-----|-----3---3-(3)-3----------|
B|-3----3-3---------||-----3-3-3---3-3-----|---3-3---3-(3)-3----------|
G|-0--0-0-0---------||---0-0-0-0-0-----0---|---0-0---0-(0)------------|
D|-0--0-----------0-||-2---------2-------2-|-0-----0---------------0--|
A|-2--2-------0h2---||---------------------|-------------------0h2----|
E|-3--3-----3-------||---------------------|-------3---------3--------|


e|-----3-3-3-(3)-3-------|-----3---3-(3)-3---------|---3-3-3-3-3-3-3--------|
B|---3-3-3-3-(3)-3-------|---3-3---3-(3)-3---------|---3-3-3-3-3-3-3--------|
G|---0-0-0-0-(0)-0---0---|---0-0---0-(0)-----------|---0-0-0-0-0-0-0--------|
D|-2---------------2---2-|-0-----0---------------0-|-2---------------2-0----|
A|-----------------------|-------------------0h2---|---------------------2--|
E|-----------------------|-------3---------3-------|------------------------|


e|-----3-3-3-(3)-3-3-3-------|---3-3-3-3-3-3-3-------|
B|-----3-3-3-(3)-3-3-3-------|---3-3-3-3-3-3-3-------|
G|-----0-0-0-(0)-0-----------|---0-0-0-0-0-0-0-------|
D|---2-----2-(2)-----------0-|-2---------------2-0---|
A|-0-------------------0h2---|---------------------2-|
E|---------------------------|-----------------------|


e|-------3-------3--------------|
B|-------3-------3-----3-----3--|
G|-------0-------------0---0-0--|
D|---2-2---2-(2)---2-0-----0----|
A|-0-------------------0h2------|
E|------------------------------|


e|-3--3-3-3-3-3-3-3-3-3-|-3-3---3-3--3-3-3-----------||
B|-3--3-3-3-3-3-3-3-3-3-|-3-3---3-3--3-3-3-----------||
G|-0--0-0-0-0-0-0-0-0-0-|-0-0---0-0--0-0-0-----------||
D|-0--0-0-0-0-0-0-0-0-0-|-0-0---0-0--0-0-0---------0-||
A|-2--2-2-2-2-2-2-2-2-2-|-2-2---2-2--2-2-2-----0-2---||
E|-3--3-3-3-3-3-3-3-3-3-|-3-3---3-3--3-3-3-3---------||
|
 | Gtr II
e|-3--3-3-3-3-3-3-3-3-3-|----------------------------||
B|-3--3-3-3-3-3-3-3-3-3-|---3---3-5--------3---3-5---||
G|-0--0-0-0-0-0-0-0-0-0-|-----4------4---4---4-------||
D|-0--0-0-0-0-0-0-0-0-0-|----------------------------||
A|-2--2-2-2-2-2-2-2-2-2-|----------------------------||
E|-3--3-3-3-3-3-3-3-3-3-|----------------------------||


 [Outro]
e|--------3-3-3------3-3---------|
B|--------3-3-3------3-3---------|
G|-----0--0-0-0--0--------0------|
D|-2-------------2-------------2-|
A|-------------------------------|
E|-------------------------------|
|
e|-------------------------------|
B|---/12-10-8----------------8---|
G|--------------/9s7-9---(9)-----|
D|-------------------------------|
A|-------------------------------|
E|-------------------------------|


e|-----3---3-(3)-3---------|-------3--3-3--(3)-3-----------------|
B|---3-3---3-(3)-3---------|---3---3--3-3--(3)-3-----------------|
G|---0-0---0-(0)-----------|---0---0--0-0--(0)-0--------0--------|
D|-0-----0---------------0-|-2--------------------2------------2-|
A|-------------------0h2---|-------------------------------------|
E|-------3---------3-------|-------------------------------------|
|
e|-------------------------|---------------------10----12s10-----|
B|-------------------------|---8---8-10s8-/12-------12-------/12-|
G|---7---7-9---------------|-----9-------------------------------|
D|-----9-------------------|-------------------------------------|
A|-------------------------|-------------------------------------|
E|-------------------------|-------------------------------------|


e|--------3--------3--(3)-3------------|
B|------3-3--------3--(3)-3------------|
G|------0-0--------0--(0)--------------|
D|--0--------0----------------------0--|
A|------------------------------0h2----|
E|-----------3----------------3--------|
|
 |                            ~~~
e|-------------------------------------|
B|-------------------/12----/12--------|
G|-12-/16s==14s12----------------------|
D|----------------14-------------------|
A|-------------------------------------|
E|-------------------------------------|


e|-------3--3--3-----3--3--3-3------------------|
B|-------3--3--3-----3--3--3-3------------------|
G|-------0--0--0-----0--0--0-0------------------|
D|-2-----------------------------2-----0--------|
A|-----------------------------------------2----|
E|----------------------------------------------|
|
e|----------------------------------------------|
B|---------15-15s10s12-15-15-------15-15-/12s10s|
G|---/16-----------------------/16--------------|
D|----------------------------------------------|
A|----------------------------------------------|
E|----------------------------------------------|


e|--------3--3-3-(3)-3--3-3----------|--------3-3--3--3-3-3--3---------------|
B|--------3--3-3-(3)-3--3-3----------|--------3-3--3--3-3-3--3---------------|
G|--------0--0-0-(0)-0--0-0----------|--------0-0--0--0-0-0--0---------------|
D|-----2-------2-(2)---------------0-|--2-----------------------2----0-------|
A|--0------------------------0h=2----|------------------------------------2--|
E|-----------------------------------|---------------------------------------|
|
e|----12-12\-----------10---------12-|-------10---10\------------------------|
B|-14------------10s12------12s14----|-10s12---------------------------------|
G|-----------------------------------|-------------------------12s9-12s9-12--|
D|-----------------------------------|----------------------12---------------|
A|-----------------------------------|---------------------------------------|
E|-----------------------------------|---------------------------------------|


e|----------3--------------3-----------------|
B|----------3--------------3-------3-(3)---3-|
G|----------0----------------------0-(0)-0-0-|
D|----2--2-------2-----(2)----2--0-------0---|
A|-0-------------------------------0h=2------|
E|-------------------------------------------|
|
e|-------------------------------------------|
B|-------------------------------------------|
G|---12s11-12-14---14-(14)---14\-------------|
D|-------------------------------------------|
A|-------------------------------------------|
E|-------------------------------------------|


e|-----3-3-3---3-3-----|-----3---3-(3)-3----------|
B|-----3-3-3---3-3-----|---3-3---3-(3)-3----------|
G|---0-0-0-0-0-----0---|---0-0---0-(0)------------|
D|-2---------2-------2-|-0-----0---------------0--|
A|---------------------|-------------------0h2----|
E|---------------------|-------3---------3--------|
|
e|---------------------|--------------------------|
B|---------------------|--------------------------|
G|---------------------|--------------------------|
D|---------------------|--------------------------|
A|---------------------|--------------------------|
E|---------------------|--------------------------|


e|-----3-3-3-(3)-3-------|-----3---3-(3)-3---------|---3-3-3-3-3-3-3--------|
B|---3-3-3-3-(3)-3-------|---3-3---3-(3)-3---------|---3-3-3-3-3-3-3--------|
G|---0-0-0-0-(0)-0---0---|---0-0---0-(0)-----------|---0-0-0-0-0-0-0--------|
D|-2---------------2---2-|-0-----0---------------0-|-2---------------2-0----|
A|-----------------------|-------------------0h2---|---------------------2--|
E|-----------------------|-------3---------3-------|------------------------|


e|-----3-3-3-(3)-3-3-3-------|---3-3-3-3-3-3-3-------|
B|-----3-3-3-(3)-3-3-3-------|---3-3-3-3-3-3-3-------|
G|-----0-0-0-(0)-0-0-0-------|---0-0-0-0-0-0-0-------|
D|---2-----2-(2)-----------0-|-2---------------2-0---|
A|-0-------------------0h2---|---------------------2-|
E|---------------------------|-----------------------|


e|-------3-------3----------------*|
B|-------3-------3-----3-(3)---3--*|
G|-------0-------------0-(0)-0-0--*|
D|---2-2---2-(2)---2-0-------0----*|
A|-0-------------------0h=2-------*|
E|--------------------------------*|



************************************

| (n)  Ghost note
| h    Hammer-on
| p    Pull-off
| b    Bend
| pb   Pre-bend
| /    Slide up
| \    Slide down
| s    Slap

************************************
Suggest correction
comments
print report bad tab
54 comments total. Showing first comments.
0 reply
thunderfvck 10 Aug 19, 2003 12:00 AM

what the hell...this is so complicated. i don't recall there being THIS much guitar in the song...

+4 reply
Raven25 10 Oct 14, 2003 12:00 AM

Holy Moly! I've never seen such a perfect tab in all my life! How on Earth did you figure all that out?? Excellent job, not one note missed, nicely organized, and easy to understand. Yay, I can now play this song! Thanks a lot for a truly superb tab!!

+2 reply
juzcook 550 Oct 19, 2003 12:00 AM

nice tab man, i havent found any mistakes yet... lets see some more tabs :\

guest
You may want to rate the tab now too:
select rating
Wanna post a correction for this tab? Suggest correction