Oops, an error
Loading. Please wait.

Wots Uh The Deal tab

version 2
version 2

Whole song

Interactive

2,527 views 3 this week
5 commentsread comments
1 2 3 4 5
x 3
add to favorites
×
Save as Personal and add changes to this tab that will be seen only by you. Learn more ›
×
You can save this tab as Personal to edit and correct it or add notes. All changes will be seen only by you. Learn more »
launch autoscroll
font size
0
reset
how to read this tab
guitar tuner
edit
Autoscroll
slow
fast
+/-
esc
set tempo
stop
Author
Difficulty
Pink Floyd
"Wots... Uh The Deal"
From The 1972 Album "Obscured By Clouds"

Part One is Rythm guitar and Part 2 is Lead

Standard Tuning (EADGBe)

+========================================================================================+

PART ONE

1. Rythm Guitar (Gilmour)

     E  E  E  E  E  E  E  E     E  E  E  E  E  E  E  E   
E||-----------3--------------|-----------2--------------|
B||--------0-----0-----------|--------0-----0-----------|
G||-----0-----------0--2--0--|-----0-----------0-----0--|
D||--------------------------|--------------------4-----|
A||--------------------------|--------------------------|
E||--------------------------|--------------------------|


  E  E  E  E  E  E  E  E     E  E  E  Q    E  E  E     E  E  E  E  E  E  E  E   
-----------1--------------|-----------0-------------|-----------0--------------|
--------0-----0-----------|-----3--0----------------|--------0-----0-----------|
-----0-----------0-----0--|----------------0-----0--|-----0-----------0-----0--|
--------------------3-----|-------------------2-----|--------------------2-----|
--------------------------|-------------------------|--------------------------|
--------------------------|-------------------------|--------------------------|


  E  E  E  E  E  E  E  E     E  E  E  E  E  E  E  E     E  E  E  Q    E  E  E   
--------------------------|-----------2-----------2--|-----------0-------------|
--------------0-----0-----|--------1-----1-----1-----|--------1-------1-----1--|
-----0--2--0-----0-----0--|-----2-----------2--------|-----2-------------2-----|
--------------------------|--------------------------|-------------------------|
--------------------------|--------------------------|-------------------------|
--------------------------|--------------------------|-------------------------|


  E  E  E  E  E  E  E  E     E  E  E  E  E  E  E  E   
-----------3--------------|-----------2--------------|
--------0-----0-----------|--------0-----0-----------|
-----0-----------0--2--0--|-----0-----------0-----0--|
--------------------------|--------------------4-----|
--------------------------|--------------------------|
--------------------------|--------------------------|


  E  E  E  E  E  E  E  E     E  E  E  Q    E  E  E     E  E  E  E  E  E  E  E   
-----------1--------------|-----------0-------------|-----------0--------------|
--------0-----0-----------|-----3--0----------------|--------0-----0-----------|
-----2-----------0-----0--|----------------0-----0--|-----0-----------0-----0--|
--------------------3-----|-------------------2-----|--------------------2-----|
--------------------------|-------------------------|--------------------------|
--------------------------|-------------------------|--------------------------|


  E  E  E  E  E  E  E  E     E  E  E  E  E  E  E  E   
--------------------------|-----------2-----------2--|
--------------0-----0-----|--------1-----1-----1-----|
-----0--2--0-----0-----0--|-----2-----------2--------|
--------------------------|--------------------------|
--------------------------|--------------------------|
--------------------------|--------------------------|


  E  E  E  E  E  E  E  E     E  E  E  E  E  E  E  E   
-----------0--0-----------|-----------3--------------|
--------1--------1-----1--|--------0-----0-----------|
-----2--------------2-----|-----0-----------0--2--0--|
--------------------------|--------------------------|
--------------------------|--------------------------|
--------------------------|--------------------------|


  E  E  E  E  E  E  E  E     E  E  E  E  E  E  E  E     E  E  E  Q    E  E  E   
-----------2--------------|-----------1--------------|-----------0-------------|
--------0-----0-----------|--------0-----0-----------|-----3--0----------------|
-----0-----------0-----0--|-----2-----------0-----0--|----------------0-----0--|
--------------------4-----|--------------------3-----|-------------------2-----|
--------------------------|--------------------------|-------------------------|
--------------------------|--------------------------|-------------------------|


  E  E  E  E  E  E  E  E     E  E  E  E  E  E  E  E   
-----------0--------------|--------------------------|
--------0-----0-----------|--------------0-----0-----|
-----0-----------0-----0--|-----0--2--0-----0-----0--|
--------------------2-----|--------------------------|
--------------------------|--------------------------|
--------------------------|--------------------------|


  E  E  E  E  E  E  E  E     E  E  E  E  E  E  E  E   
-----------2-----------2--|-----------0--0-----------|
--------1-----1-----1-----|--------1--------1-----1--|
-----2-----------2--------|-----2--------------2-----|
--------------------------|--------------------------|
--------------------------|--------------------------|
--------------------------|--------------------------|


  E  E  E  E  E  E  E  E     E  E  E  E  E  E  E  E     E  E  E  Q    E  E  E   
-----------3--------------|-----------1--------------|-----------0----------0--|
--------0-----0-----------|--------0-----0-----------|--------1-------0--1-----|
-----0-----------0--2--0--|-----0-----------0-----0--|-----0-------------------|
--------------------------|--------------------3-----|-------------------------|
--------------------------|--------------------------|-------------------------|
--------------------------|--------------------------|-------------------------|


  E  E  E  E  E  E  E  E     E  E  E  E  E  E  E  E   
-----------0-----------0--|-----------3-----------3--|
--------1-----1-----1-----|--------0-----0-----0-----|
-----2-----------2--------|-----0-----------0--------|
--------------------------|--------------------------|
--------------------------|--------------------------|
--------------------------|--------------------------|


  E  E  E  E  E  E  E  E     E  E  E  Q    E  E  E     E  E  E  H        E   
-----------1-----------1--|-----------2----------2--|-----0--0--0-----------|
--------0-----0-----0-----|--------1-------1--------|--------------------3--|
-----0-----------0--------|-----2-------------2-----|-----------------------|
--------------------------|-------------------------|-----------------------|
--------------------------|-------------------------|-----------------------|
--------------------------|-------------------------|-----------------------|


  E  E  E  E  E  E  E  E     E  E  E  E  E  E  E  E   
-----------3--------------|-----------2--------------|
--------0-----0-----------|--------0-----0-----------|
-----0-----------0--2--0--|-----0-----------0-----0--|
--------------------------|--------------------4-----|
--------------------------|--------------------------|
--------------------------|--------------------------|


  E  E  E  E  E  E  E  E     E  E  E  Q    E  E  E     E  E  E  E  E  E  E  E   
-----------1--------------|-----------0-------------|-----------0--------------|
--------0-----0-----------|-----3--0----------------|--------0-----0-----------|
-----2-----------0-----0--|----------------0-----0--|-----0-----------0-----0--|
--------------------3-----|-------------------2-----|--------------------2-----|
--------------------------|-------------------------|--------------------------|
--------------------------|-------------------------|--------------------------|


  E  E  E  E  E  E  E  E     E  E  E  E  E  E  E  E   
--------------------------|-----------2-----------2--|
--------------0-----0-----|--------1-----1-----1-----|
-----0--2--0-----0-----0--|-----2-----------2--------|
--------------------------|--------------------------|
--------------------------|--------------------------|
--------------------------|--------------------------|


  E  E  E  E  E  E  E  E     E  E  E  E  E  E  E  E   
-----------0--0-----------|-----------3--------------|
--------1--------1-----1--|--------0-----0-----------|
-----2--------------2-----|-----0-----------0--2--0--|
--------------------------|--------------------------|
--------------------------|--------------------------|
--------------------------|--------------------------|


  E  E  E  E  E  E  E  E     E  E  E  E  E  E  E  E     E  E  E  Q    E  E  E   
-----------2--------------|-----------1--------------|-----------0-------------|
--------0-----0-----------|--------0-----0-----------|-----3--0----------------|
-----0-----------0-----0--|-----2-----------0-----0--|----------------0-----0--|
--------------------4-----|--------------------3-----|-------------------2-----|
--------------------------|--------------------------|-------------------------|
--------------------------|--------------------------|-------------------------|


  E  E  E  E  E  E  E  E     E  E  E  E  E  E  E  E   
-----------0--------------|--------------------------|
--------0-----0-----------|--------------0-----0-----|
-----0-----------0-----0--|-----0--2--0-----0-----0--|
--------------------2-----|--------------------------|
--------------------------|--------------------------|
--------------------------|--------------------------|


  E  E  E  E  E  E  E  E     E  E  E  E  E  E  E  E   
-----------2-----------2--|-----------0--0-----------|
--------1-----1-----1-----|--------1--------1-----1--|
-----2-----------2--------|-----2--------------2-----|
--------------------------|--------------------------|
--------------------------|--------------------------|
--------------------------|--------------------------|


  E  E  E  E  E  E  E  E     E  E  E  E  E  E  E  E     E  E  E  Q    E  E  E   
-----------3--------------|-----------1--------------|-----------0----------0--|
--------0-----0-----------|--------0-----0-----------|--------1-------0--1-----|
-----0-----------0--2--0--|-----0-----------0-----0--|-----0-------------------|
--------------------------|--------------------3-----|-------------------------|
--------------------------|--------------------------|-------------------------|
--------------------------|--------------------------|-------------------------|


  E  E  E  E  E  E  E  E     E  E  E  E  E  E  E  E   
-----------0-----------0--|-----------3-----------3--|
--------1-----1-----1-----|--------0-----0-----0-----|
-----2-----------2--------|-----0-----------0--------|
--------------------------|--------------------------|
--------------------------|--------------------------|
--------------------------|--------------------------|


  E  E  E  E  E  E  E  E     E  E  E  Q    E  E  E     E  E  E  H        E   
-----------1-----------1--|-----------2----------2--|-----0--0--0-----------|
--------0-----0-----0-----|--------1-------1--------|--------------------3--|
-----0-----------0--------|-----2-------------2-----|-----------------------|
--------------------------|-------------------------|-----------------------|
--------------------------|-------------------------|-----------------------|
--------------------------|-------------------------|-----------------------|


  E  E  E  E  E  E  E  E     E  E  E  E  E  E  E  E   
-----------3--------------|-----------2--------------|
--------0-----0-----------|--------0-----0-----------|
-----0-----------0--2--0--|-----0-----------0-----0--|
--------------------------|--------------------4-----|
--------------------------|--------------------------|
--------------------------|--------------------------|


  E  E  E  E  E  E  E  E     E  E  E  Q    E  E  E     E  E  E  E  E  E  E  E   
-----------1--------------|-----------0-------------|-----------0--------------|
--------0-----0-----------|-----3--0----------------|--------0-----0-----------|
-----2-----------0-----0--|----------------0-----0--|-----0-----------0-----0--|
--------------------3-----|-------------------2-----|--------------------2-----|
--------------------------|-------------------------|--------------------------|
--------------------------|-------------------------|--------------------------|


  E  E  E  E  E  E  E  E     E  E  E  E  E  E  E  E   
--------------------------|-----------2-----------2--|
--------------0-----0-----|--------1-----1-----1-----|
-----0--2--0-----0-----0--|-----2-----------2--------|
--------------------------|--------------------------|
--------------------------|--------------------------|
--------------------------|--------------------------|


  E  E  E  E  E  E  E  E     E  E  E  E  E  E  E  E   
-----------0--0-----------|-----------0--0-----------|
--------1--------1-----1--|--------1--------1-----1--|
-----2--------------2-----|-----2--------------2-----|
--------------------------|--------------------------|
--------------------------|--------------------------|
--------------------------|--------------------------|


  E  E  E  E  E  E  E  E     E  E  E  E  E  E  E  E   
-----------3--------------|-----------2--------------|
--------0-----0-----------|--------0-----0-----------|
-----0-----------0--2--0--|-----0-----------0-----0--|
--------------------------|--------------------4-----|
--------------------------|--------------------------|
--------------------------|--------------------------|


  E  E  E  E  E  E  E  E     E  E  E  Q    E  E  E     E  E  E  E  E  E  E  E   
-----------1--------------|-----------0-------------|-----------0--------------|
--------0-----0-----------|-----3--0----------------|--------0-----0-----------|
-----2-----------0-----0--|----------------0-----0--|-----0-----------0-----0--|
--------------------3-----|-------------------2-----|--------------------2-----|
--------------------------|-------------------------|--------------------------|
--------------------------|-------------------------|--------------------------|


  E  E  E  E  E  E  E  E     S  S  S  S S  S  S  S S  S   S   S  S   S   S   S  
--------------------------|----------------------------------------------------|
--------------0-----0-----|----------------------------------------------------|
-----0--2--0-----0-----0--|----------------------------------------------------|
--------------------------|--0S-1S-2S-3-4S-5S-6S-7-8S-9S-10S-11-12S-13S-14S-15-|
--------------------------|----------------------------------------------------|
--------------------------|----------------------------------------------------|


  E  E  E  E  E  E  E  E     E  E  E  E  E  E  E  E     E  E  E  Q    E  E  E   
-----------3--------------|-----------1--------------|-----------0----------0--|
--------0-----0-----------|--------0-----0-----------|--------1-------0--1-----|
-----0-----------0--2--0--|-----0-----------0-----0--|-----0-------------------|
--------------------------|--------------------3-----|-------------------------|
--------------------------|--------------------------|-------------------------|
--------------------------|--------------------------|-------------------------|


  E  E  E  E  E  E  E  E     E  E  E  E  E  E  E  E   
-----------0--0-----------|-----------3--------------|
--------1--------1-----1--|--------0-----0-----------|
-----2--------------2-----|-----0-----------0--2--0--|
--------------------------|--------------------------|
--------------------------|--------------------------|
--------------------------|--------------------------|


  E  E  E  E  E  E  E  E     E  E  E  E  E  E  E  E   
-----------2--------------|-----------2--------------|
--------0-----0-----------|--------1-----1-----------|
-----0-----------0-----0--|-----2-----------2-----2--|
--------------------4-----|--------------------0-----|
--------------------------|--------------------------|
--------------------------|--------------------------|


  E  E  E  E  E  E  E  E     E  E  E  E  E  E  E  E   
-----------2--------------|-----------3--------------|
--------1-----1-----------|--------0-----0-----------|
-----2-----------2-----2--|-----0-----------0--2--0--|
--------------------0-----|--------------------------|
--------------------------|--------------------------|
--------------------------|--------------------------|


  E  E  E  E  E  E  E  E     E  E  E  E  E  E  E  E     E  E  E  Q    E  E  E   
-----------2--------------|-----------1--------------|-----------0-------------|
--------0-----0-----------|--------0-----0-----------|-----3--0----------------|
-----0-----------0-----0--|-----2-----------0-----0--|----------------0-----0--|
--------------------4-----|--------------------3-----|-------------------2-----|
--------------------------|--------------------------|-------------------------|
--------------------------|--------------------------|-------------------------|


  E  E  E  E  E  E  E  E     E  E  E  E  E  E  E  E   
-----------0--------------|--------------------------|
--------0-----0-----------|--------------0-----0-----|
-----0-----------0-----0--|-----0--2--0-----0-----0--|
--------------------2-----|--------------------------|
--------------------------|--------------------------|
--------------------------|--------------------------|


  E  E  E  E  E  E  E  E     E  E  E  E  E  E  E  E   
-----------2-----------2--|-----------0--0-----------|
--------1-----1-----1-----|--------1--------1-----1--|
-----2-----------2--------|-----2--------------2-----|
--------------------------|--------------------------|
--------------------------|--------------------------|
--------------------------|--------------------------|


  E  E  E  E  E  E  E  E     E  E  E  E  E  E  E  E   
-----------3--------------|-----------2--------------|
--------0-----0-----------|--------0-----0-----------|
-----0-----------0--2--0--|-----0-----------0-----0--|
--------------------------|--------------------4-----|
--------------------------|--------------------------|
--------------------------|--------------------------|


  E  E  E  E  E  E  E  E     E  E  E  Q    E  E  E     E  E  E  E  E  E  E  E   
-----------1--------------|-----------0-------------|-----------0--------------|
--------0-----0-----------|-----3--0----------------|--------0-----0-----------|
-----2-----------0-----0--|----------------0-----0--|-----0-----------0-----0--|
--------------------3-----|-------------------2-----|--------------------2-----|
--------------------------|-------------------------|--------------------------|
--------------------------|-------------------------|--------------------------|


  E  E  E  E  E  E  E  E     E  E  E  E  E  E  E  E   
--------------------------|-----------2-----------2--|
--------------0-----0-----|--------1-----1-----1-----|
-----0--2--0-----0-----0--|-----2-----------2--------|
--------------------------|--------------------------|
--------------------------|--------------------------|
--------------------------|--------------------------|


  E  E  E  E  E  E  E  E     E  E  E  E  E  E  E  E   
-----------0--0-----------|-----------3--------------|
--------1--------1-----1--|--------0-----0-----------|
-----2--------------2-----|-----0-----------0--2--0--|
--------------------------|--------------------------|
--------------------------|--------------------------|
--------------------------|--------------------------|


  E  E  E  E  E  E  E  E     E  E  E  Q    E  E  E     E  E  E  E  E  E  E  E   
-----------1--------------|-----------0----------0--|-----------0-----------0--|
--------0-----0-----------|--------1-------0--1-----|--------1-----1-----1-----|
-----0-----------0-----0--|--L--0-------------------|-----2-----------2--------|
--------------------3-----|-------------------------|--------------------------|
--------------------------|-------------------------|--------------------------|
--------------------------|-------------------------|--------------------------|


  E  E  E  E  E  E  E  E     E  E  E  E  E  E  E  E     E  E  E  Q    E  E  E   
-----------3-----------3--|-----------1-----------1--|-----------2----------2--|
--------0-----0-----0-----|--------0-----0-----0-----|--------1-------1--------|
-----0-----------0--------|-----0-----------0--------|-----2-------------2-----|
--------------------------|--------------------------|-------------------------|
--------------------------|--------------------------|-------------------------|
--------------------------|--------------------------|-------------------------|


  E  E  E  H        E     E  E  E  E  E  E  E  E     E  E  E  E  E  E  E  E   
-----0--0--0-----------|-----------3--------------|-----------2--------------|
--------------------3--|--------0-----0-----------|--------0-----0-----------|
-----------------------|-----0-----------0--2--0--|-----0-----------0-----0--|
-----------------------|--------------------------|--------------------4-----|
-----------------------|--------------------------|--------------------------|
-----------------------|--------------------------|--------------------------|


  E  E  E  E  E  E  E  E     E  E  E  Q    E  E  E    
-----------1--------------|-----------0-------------||
--------0-----0-----------|-----3--0----------------||
-----2-----------0-----0--|----------------0-----0--||
--------------------3-----|-------------------2-----||
--------------------------|-------------------------||
--------------------------|-------------------------||

+================================================================================================+

PART TWO

Lead Guitar (Gilmour)

     H           Q      Q       H        Q    Q       H        Q    Q     
E||--------------------------|---------------------|---------------------|
B||--------------------------|---------------------|---------------------|
G||--------------------------|---------------------|---------------------|
D||--5~--------5g7----7g5----|---------------------|---------------------|
A||--------------------------|--9-------------9----|--8-------------8----|
E||--------------------------|---------------------|---------------------|


  H        Q    Q       H         Q    Q       Q    Q      Q    Q     
---------------------|----------------------|------------------------|
---------------------|----------------------|------------------------|
---------------------|----------------------|------------------------|
---------------------|----------------------|------------------------|
--7-------------7----|--6~-------------6----|--5----6----5H7----6----|
---------------------|----------------------|------------------------|


  H         H           H.            Q       H           Q      Q     
---------------------|---------------------|--------------------------|
---------------------|---------------------|--------------------------|
---------------------|---------------------|--------------------------|
---------------------|---------------------|--5~--------5H7----7P5----|
--5~-----------------|--5~------------5----|--------------------------|
---------------------|---------------------|--------------------------|


  H        Q    Q       H        Q    Q       H        Q    Q     
---------------------|---------------------|---------------------|
---------------------|---------------------|---------------------|
---------------------|---------------------|---------------------|
---------------------|---------------------|---------------------|
--9-------------9----|--8-------------8----|--7-------------7----|
---------------------|---------------------|---------------------|


  H         Q    Q       Q    Q      Q    Q       H         H         
----------------------|------------------------|---------------------|
----------------------|------------------------|---------------------|
----------------------|------------------------|---------------------|
----------------------|------------------------|---------------------|
--6~-------------6----|--5----6----5H7----6----|--5~-----------------|
----------------------|------------------------|---------------------|


  H.            Q       H           Q      Q       H        Q    Q     
---------------------|--------------------------|---------------------|
---------------------|--------------------------|---------------------|
---------------------|--------------------------|---------------------|
---------------------|--5~--------5H7----7p5----|---------------------|
--5~------------5----|--------------------------|--9-------------9----|
---------------------|--------------------------|---------------------|


  H        Q    Q       H        Q    Q       H         Q    Q     
---------------------|---------------------|----------------------|
---------------------|---------------------|----------------------|
---------------------|---------------------|----------------------|
---------------------|---------------------|----------------------|
--8-------------8----|--7-------------7----|--6~-------------6----|
---------------------|---------------------|----------------------|


  Q    Q      Q    Q       H         H           H.            Q     
------------------------|---------------------|---------------------|
------------------------|---------------------|---------------------|
------------------------|---------------------|---------------------|
------------------------|---------------------|---------------------|
--5----6----5h7----6----|--5~-----------------|--5~------------5----|
------------------------|---------------------|---------------------|


  H.           Q       H.           Q       H        Q    Q     
--------------------|--------------------|---------------------|
--------------------|--------------------|---------------------|
--------------------|--------------------|---------------------|
--5-----------------|--3-----------------|--2------------------|
--------------------|--------------------|-----------3----2----|
--------------------|--------------------|---------------------|


  Q    Q    H           H.           Q       H.           Q     
---------------------|--------------------|--------------------|
---------------------|--------------------|--------------------|
---------------------|--------------------|--------------------|
-------7----7--------|--5-----------------|--5-----------------|
---------------------|--------------------|--------------------|
--5------------------|--------------------|--------------------|


  H.           Q       Q    Q    Q    Q       H           Q      Q     
--------------------|----------------------|--------------------------|
--------------------|----------------------|--------------------------|
--------------------|----------------------|--------------------------|
--------------------|----------------------|--5~--------5h7----7p5----|
--5-----------------|--5----5----5----5----|--------------------------|
--------------------|----------------------|--------------------------|


  H        Q    Q       H        Q    Q       H        Q    Q     
---------------------|---------------------|---------------------|
---------------------|---------------------|---------------------|
---------------------|---------------------|---------------------|
---------------------|---------------------|---------------------|
--9-------------9----|--8-------------8----|--7-------------7----|
---------------------|---------------------|---------------------|


  H         Q    Q       Q    Q      Q    Q       H         H         
----------------------|------------------------|---------------------|
----------------------|------------------------|---------------------|
----------------------|------------------------|---------------------|
----------------------|------------------------|---------------------|
--6~-------------6----|--5----6----5h7----6----|--5~-----------------|
----------------------|------------------------|---------------------|


  H.            Q       H           Q      Q       H        Q    Q     
---------------------|--------------------------|---------------------|
---------------------|--------------------------|---------------------|
---------------------|--------------------------|---------------------|
---------------------|--5~--------5h7----7p5----|---------------------|
--5~------------5----|--------------------------|--9-------------9----|
---------------------|--------------------------|---------------------|


  H        Q    Q       H        Q    Q       H         Q    Q     
---------------------|---------------------|----------------------|
---------------------|---------------------|----------------------|
---------------------|---------------------|----------------------|
---------------------|---------------------|----------------------|
--8-------------8----|--7-------------7----|--6~-------------6----|
---------------------|---------------------|----------------------|


  Q    Q      Q    Q       H         H           H.            Q     
------------------------|---------------------|---------------------|
------------------------|---------------------|---------------------|
------------------------|---------------------|---------------------|
------------------------|---------------------|---------------------|
--5----6----5h7----6----|--5~-----------------|--5~------------5----|
------------------------|---------------------|---------------------|


  H.           Q       H.           Q       H        Q    Q     
--------------------|--------------------|---------------------|
--------------------|--------------------|---------------------|
--------------------|--------------------|---------------------|
--5-----------------|--3-----------------|--2------------------|
--------------------|--------------------|-----------3----2----|
--------------------|--------------------|---------------------|


  Q    Q    H           H.           Q       H.           Q     
---------------------|--------------------|--------------------|
---------------------|--------------------|--------------------|
---------------------|--------------------|--------------------|
-------7----7--------|--5-----------------|--5-----------------|
---------------------|--------------------|--------------------|
--5------------------|--------------------|--------------------|


  H.           Q       Q    Q    Q    Q       H           Q      Q     
--------------------|----------------------|--------------------------|
--------------------|----------------------|--------------------------|
--------------------|----------------------|--------------------------|
--------------------|----------------------|--5~--------5h7----7p5----|
--5-----------------|--5----5----5----5----|--------------------------|
--------------------|----------------------|--------------------------|


  H        Q    Q       H        Q    Q       H        Q    Q     
---------------------|---------------------|---------------------|
---------------------|---------------------|---------------------|
---------------------|---------------------|---------------------|
---------------------|---------------------|---------------------|
--9-------------9----|--8-------------8----|--7-------------7----|
---------------------|---------------------|---------------------|


  H         Q    Q       Q    Q      Q    Q       H         H         
----------------------|------------------------|---------------------|
----------------------|------------------------|---------------------|
----------------------|------------------------|---------------------|
----------------------|------------------------|---------------------|
--6~-------------6----|--5----6----5h7----6----|--5~-----------------|
----------------------|------------------------|---------------------|


  H.            Q       H           Q      Q       H        Q    Q     
---------------------|--------------------------|---------------------|
---------------------|--------------------------|---------------------|
---------------------|--------------------------|---------------------|
---------------------|--5~--------5h7----7p5----|---------------------|
--5~------------5----|--------------------------|--9-------------9----|
---------------------|--------------------------|---------------------|


  H        Q    Q       H        Q    Q       H         Q    Q     
---------------------|---------------------|----------------------|
---------------------|---------------------|----------------------|
---------------------|---------------------|----------------------|
---------------------|---------------------|----------------------|
--8-------------8----|--7-------------7----|--6~-------------6----|
---------------------|---------------------|----------------------|


  Q    Q      Q    Q       Q    Q    Q      Q         Q    Q     Q     Q     
------------------------|------------------------|--3h5----8----10----14----|
------------------------|--3----3----3----5h7----|--------------------------|
------------------------|------------------------|--------------------------|
------------------------|------------------------|--------------------------|
--5----6----5h7----6----|------------------------|--------------------------|
------------------------|------------------------|--------------------------|


   Q     E  E      E   E   E   E      E    E   E  E   E   E   E   E   
----------------------------------|-----------15---------------------|
--12~----------12h13--12----------|--12S--15---------13--12----------|
--------------------------14--12--|------------------------------12--|
----------------------------------|--------------------------12------|
----------------------------------|----------------------------------|
----------------------------------|----------------------------------|


   Q.      E   Q      Q         Q.      E   E    E   E    E   
--12------15----------------|--------------------------------|
--------------13~----12~----|--------------------------------|
----------------------------|--14----------12h--14--12h--14--|
----------------------------|----------12--------------------|
----------------------------|--------------------------------|
----------------------------|--------------------------------|


   Q       E    E  E   E  E  E     Q     E  Q.      S  S  E   
--------------------------7--8--|--7~---------------7p-5h-7--|
-------------------8--10--------|--------8-------------------|
--12~----(12)S--7---------------|-----------9~---------------|
--------------------------------|----------------------------|
--------------------------------|----------------------------|
--------------------------------|----------------------------|


  Q    E  Q    E  E  E     Q     E  E  E  E  S  S S  S  
--5---------------5--7--|--5b----5---------------------|
-------7-------7--------|-----------x--5---------------|
----------7-------------|-----------x-----7--7p-5------|
------------------------|-------------------------9p-7-|
------------------------|------------------------------|
------------------------|------------------------------|


  H           Q      Q       H        Q    Q       H        Q    Q     
--------------------------|---------------------|---------------------|
--------------------------|---------------------|---------------------|
--4~----------------------|---------------------|---------------------|
--5~--------5g7----7g5----|---------------------|---------------------|
--------------------------|--9-------------9----|--8-------------8----|
--------------------------|---------------------|---------------------|


  H        Q    Q       H         Q    Q       Q    Q      Q    Q     
---------------------|----------------------|------------------------|
---------------------|----------------------|------------------------|
---------------------|----------------------|------------------------|
---------------------|----------------------|------------------------|
--7-------------7----|--6~-------------6----|--5----6----5h7----6----|
---------------------|----------------------|------------------------|


  H         H           H.            Q       H           Q      Q     
---------------------|---------------------|--------------------------|
---------------------|---------------------|--------------------------|
---------------------|---------------------|--------------------------|
---------------------|---------------------|--5~--------5h7----7p5----|
--5~-----------------|--5~------------5----|--------------------------|
---------------------|---------------------|--------------------------|


  H        Q    Q       H        Q    Q       H        Q    Q     
---------------------|---------------------|---------------------|
---------------------|---------------------|---------------------|
---------------------|---------------------|---------------------|
---------------------|---------------------|---------------------|
--9-------------9----|--8-------------8----|--7-------------7----|
---------------------|---------------------|---------------------|


  H         Q    Q       Q    Q      Q    Q       H         H         
----------------------|------------------------|---------------------|
----------------------|------------------------|---------------------|
----------------------|------------------------|---------------------|
----------------------|------------------------|---------------------|
--6~-------------6----|--5----6----5h7----6----|--5~-----------------|
----------------------|------------------------|---------------------|


  H.            Q       H.           Q       H.           Q     
---------------------|--------------------|--------------------|
---------------------|--------------------|--------------------|
---------------------|--------------------|--------------------|
---------------------|--5-----------------|--3-----------------|
--5~------------5----|--------------------|--------------------|
---------------------|--------------------|--------------------|


  H        Q    Q       Q    Q    H           H.           Q     
---------------------|---------------------|--------------------|
---------------------|---------------------|--------------------|
---------------------|---------------------|--------------------|
--2------------------|-------7----7--------|--5-----------------|
-----------3----2----|---------------------|--------------------|
---------------------|--5------------------|--------------------|


  H.           Q       H.           Q       Q    Q    Q    Q     
--------------------|--------------------|----------------------|
--------------------|--------------------|----------------------|
--------------------|--------------------|----------------------|
--5-----------------|--------------------|----------------------|
--------------------|--5-----------------|--5----5----5----5----|
--------------------|--------------------|----------------------|


  H           Q      Q       H        Q    Q       H        Q    Q     
--------------------------|---------------------|---------------------|
--------------------------|---------------------|---------------------|
--------------------------|---------------------|---------------------|
--5~--------5h7----7p5----|---------------------|---------------------|
--------------------------|--9-------------9----|--8-------------8----|
--------------------------|---------------------|---------------------|


  H        Q    Q      
---------------------||
---------------------||
---------------------||
---------------------||
--7-------------7----||
---------------------||

            
            
Suggest correction
Creating personal tab
Creating personal tab
You can edit any tab online and save it as your Personal.

You can edit, replace or remove any tab part or add personal notes – all changes will be seen only by you.

Personal tabs can be accessed anytime from any device, even offline.
Learn more »
Give kudos to tab author, rate the tab!
1 2 3 4 5
comments
print report bad tab
5 comments total. Showing first comments.
0 reply
Jibbs 431 Aug 07, 2006 02:43 PM

It seems like it might be a nice tab....but who knows through all of those distracting "L's"?

0 reply
rayIII 643 Aug 08, 2006 04:42 PM

oops :p ill update it without those

0 reply
rayIII 643 Aug 09, 2006 01:44 PM

ok fixed

guest
You may want to rate the tab now too:
select rating
Wanna post a correction for this tab? Suggest correction