Oops, an error
Loading. Please wait.

Young Lust bass

version 3
version 3

Whole song

  • The two others tabs are good, but the first one mi... Show more
154 views 6 this week
no commentswrite comment
1 2 3 4 5
2 more votes to show rating
add to favorites
×
Save as Personal and add changes to this tab that will be seen only by you. Learn more ›
×
You can save this tab as Personal to edit and correct it or add notes. All changes will be seen only by you. Learn more »
launch autoscroll
font size
0
reset
guitar tuner
backing track
0:00
0:00
edit
Autoscroll
slow
fast
+/-
esc
set tempo
stop
Author
Difficulty
About this tab version
The two others tabs are good, but the first one missed a few things, and the second one is accurate but quite "dirty" - get it ? - so I wanted to "mix " them to make a better one (I also added some things). Was this info helpful? Yes No
Artist : Pink Floyd
Album : The Wall
Song : Young Lust

Careful with the timings, I went to a great effort to write them as precisely as I can.

[Verse]
G|----------------|----------------|----------------|-----------------|
D|----------------|----------------|----------------|-----------------|
A|-----5--7r------|----------------|-----5--7r-----5|7-------------5h7|
E|0(0)------------|0--------x5-5---|0-0-------------|--0r-0r-0r-------|
  1 + 2 + 3 + 4 +  1 + 2 + 3 + 4 +  1 + 2 + 3 + 4 +  1 + 2 + 3 + 4 +  

G|----------------|----------------|----------------|----------------|
D|----------------|----------------|----------------|----------------|
A|-----5--7r------|------4-5-4-5~-\|-----5--7r-----5|7---------------|
E|0-0-------------|0---------------|0-0-------------|--0r-0r-0r----1/|
  1 + 2 + 3 + 4 +  1 + 2 + 3 + 4 +  1 + 2 + 3 + 4 +  1 + 2 + 3 + 4 +  

[Pre-Chorus]
G|----------------|----------------|----------------|----------------|
D|--5---5-3-3-2-2-|----------------|----------------|----------------|
A|----------------|5-5-3-3-2-2-----|--------------7-|7~--------------|
E|3---3-----------|------------5-5-|0---------------|--------------3-|
  1 + 2 + 3 + 4 +  1 + 2 + 3 + 4 +  1 + 2 + 3 + 4 +  1 + 2 + 3 + 4 +  

[Chorus]
G|----------------|----------------|----------------|----------------|
D|----------------|----------------|----------------|----------------|
A|----------------|----------------|----------------|----------------|
E|5-5r----5-5r----|5-5r----5-5r----|3-3r----3-3r----|3-3r----x3--x4--|
  1 + 2 + 3 + 4 +  1 + 2 + 3 + 4 +  1 + 2 + 3 + 4 +  1 + 2 + 3 + 4 +  

G|----------------|----------------|----------------|----------------|
D|----------------|----------------|----------------|----------------|
A|----------------|----------------|----------------|----------------|
E|5-5r----5-5r----|5-5r----5-5r----|0---------------|----------------|
  1 + 2 + 3 + 4 +  1 + 2 + 3 + 4 +  1 + 2 + 3 + 4 +  1 + 2 + 3 + 4 +   

[Verse]
G|----------------|----------------|----------------|------------------|
D|----------------|----------------|----------------|------------------|
A|-----5--7r------|--------x5------|-----5--7r------|7--------------5h7|
E|0(0)------------|0-----------x5--|0-0-------------|--0r-0r-0r--------|
  1 + 2 + 3 + 4 +  1 + 2 + 3 + 4 +  1 + 2 + 3 + 4 +  1 + 2 + 3 + 4 +  
                                               You can do this part without pull-offs if you prefer
G|----------------|----------------|--------------------------------|--------------------------------|
D|----------------|----------------|--------5---7--/8---7---7p5-----|--------------------------------|
A|-----5--7r------|----------------|----7-----------------------7p5-|7p5-------------7~--------------|
E|0-0-------------|0-------x5--x5--|0-------------------------------|----7p5-6p5-3p0-------------0-1-|
  1 + 2 + 3 + 4 +  1 + 2 + 3 + 4 +  1   +   2   +   3   +   4   +    1   +   2   +   3   +   4   +    

[Pre-Chorus]
G|----------------|----------------|----------------|----------------|
D|--5---5-3-3-2-2-|----------------|----------------|----------------|
A|----------------|5-5-3-3-2-2-----|--------7~------|----------------|
E|3---3-----------|------------5-5-|0---------------|----------------|
  1 + 2 + 3 + 4 +  1 + 2 + 3 + 4 +  1 + 2 + 3 + 4 +  1 + 2 + 3 + 4 +  

 
[Chorus]
G|----------------|----------------|----------------|----------------|
D|----------------|----------------|----------------|----------------|
A|----------------|----------------|----------------|----------------|
E|5-5r----5-5r----|5-5r----5-5r----|3-3r----3-3r----|3-3r----x3--x4--|
  1 + 2 + 3 + 4 +  1 + 2 + 3 + 4 +  1 + 2 + 3 + 4 +  1 + 2 + 3 + 4 +  

G|----------------|----------------|----------------|----------------|
D|----------------|----------------|----------------|----------------|
A|----------------|----------------|----------------|----------------|
E|5-5r----5-5r----|5-5r----5-5r----|0---------------|-------/12\-----|
  1 + 2 + 3 + 4 +  1 + 2 + 3 + 4 +  1 + 2 + 3 + 4 +  1 + 2 + 3 + 4 +  

[Solo]
G|----------------|----------------|
D|----------------|-------5r-4r----|
A|----7-5-7-5-7-5-|7-5-7-5---------| (x3)
E|0---------------|------------x3~-|
  1 + 2 + 3 + 4 +  1 + 2 + 3 + 4 +  

G|----------------|----------------|
D|----------------|----------------|
A|----7-------8---|----9-------10\-|
E|0-0-----0-0-----|0-0-----0-0-----|
  1 + 2 + 3 + 4 +  1 + 2 + 3 + 4 +  

[Pre-Chorus]
G|----------------|----------------|----------------|----------------|
D|----5-5-3-3-2-2-|----------------|----------------|----------------|
A|----------------|5-5-3-3-2-2-----|----------------|----------------|
E|3-3-------------|------------3-3-|5-----3-5-----3-|5-3-5-3-5-3-5-3-|
  1 + 2 + 3 + 4 +  1 + 2 + 3 + 4 +  1 + 2 + 3 + 4 +  1 + 2 + 3 + 4 +  

G|----------------|----------------|----------------|----------------|
D|----5-5-----5-5-|----5-5-----5---|----------------|----------------|
A|----------------|----------------|----------------|----------------|
E|3-3-----3-3-----|3-3-----3-3---3-|5-----3-5-3-5-3-|5-3-5-3-5---5-3-|
  1 + 2 + 3 + 4 +  1 + 2 + 3 + 4 +  1 + 2 + 3 + 4 +  1 + 2 + 3 + 4 +  

G|----------------|----------------|
D|----------------|----------------|
A|----------------|----------------|
E|0---------------|----------------|
  1 + 2 + 3 + 4 +  1 + 2 + 3 + 4 +  

[Chorus]
G|----------------|----------------|----------------|----------------|
D|----------------|----------------|----------------|----------------|
A|----------------|----------------|----------------|----------------|
E|5-5r----5-5r----|5-5r----5-5r----|3-3r----3-3r----|3-3r----x3--x4--|
  1 + 2 + 3 + 4 +  1 + 2 + 3 + 4 +  1 + 2 + 3 + 4 +  1 + 2 + 3 + 4 +  
                                                             |-3-| |-3-|
G|----------------|----------------|----------------|--------------------|
D|----------------|----------------|----------------|--------------------|
A|----------------|----------------|----------------|--------7-5---------|
E|5-5r----5-5r----|5-5r----5-5r----|0---------------|------------7-5-5-3-|
  1 + 2 + 3 + 4 +  1 + 2 + 3 + 4 +  1 + 2 + 3 + 4 +  1 + 2 + 3  +  4  +  

[Outro] - and the mysterious phone call
G|----------------|----------------|----------------|-----------------|
D|----------------|----------------|----------------|-----------------|
A|-----5--7r------|7---x5--3-2-----|-----5--7r-----5|7-------------5h7|
E|0-0------------7|--7---------x3~-|0-0-------------|--0r-0r-0r-------|
  1 + 2 + 3 + 4 +  1 + 2 + 3 + 4 +  1 + 2 + 3 + 4 +  1 + 2 + 3 + 4 +  

G|----------------|----------------|----------------|-----------------|
D|----------------|----5-7-8-7/5---|----------------|-----------------|
A|-----5--7r------|--7-----------7-|-----5--7r-----5|7-------------5h7|
E|0-0-------------|0---------------|0-0-------------|--0r-0r-0r-------|
  1 + 2 + 3 + 4 +  1 + 2 + 3 + 4 +  1 + 2 + 3 + 4 +  1 + 2 + 3 + 4 +  

G|----------------|------------------------|----------------|-----------------|
D|----------------|------------------------|----------------|-----------------|
A|-----5--7r------|--------7p5-------------|-----5--7r-----5|7-------------5h7|
E|0-0-------------|0-----------7p5-6p5-3p0-|0-0-------------|--0r-0r-0r-------|
  1 + 2 + 3 + 4 +  1 + 2 + 3   +   4   +    1 + 2 + 3 + 4 +  1 + 2 + 3 + 4 +  

G|----------------|----------------|----------------|----------------||
D|----------------|----------------|----------------|----------------||
A|-----5--7r------|5-7-------------|-----5--7r------|7---------------||
E|0-0---------12\-|----5-7-3-5-0---|0-0-------------|--0r-0r-0r------||
  1 + 2 + 3 + 4 +  1 + 2 + 3 + 4 +  1 + 2 + 3 + 4 +  1 + 2 + 3 + 4 +  



************************************

| x   Dead note
| (n) Ghost note
| h   Hammer-on
| p   Pull-off
| r   Release
| /   Slide up
| \   Slide down
| ~   Vibrato

************************************

            
            
Suggest correction
Creating personal tab
Creating personal tab
You can edit any tab online and save it as your Personal.

You can edit, replace or remove any tab part or add personal notes – all changes will be seen only by you.

Personal tabs can be accessed anytime from any device, even offline.
Learn more »
Give kudos to tab author, rate the tab!
1 2 3 4 5
comments
print report bad tab
guest
You may want to rate the tab now too:
select rating
Wanna post a correction for this tab? Suggest correction