Oops, an error
Loading. Please wait.

Youve Got To Be Crazy tab

88 views 3 this week
no commentswrite comment
1 2 3 4 5
3 more votes to show rating
add to favorites
×
Save as Personal and add changes to this tab that will be seen only by you. Learn more ›
×
You can save this tab as Personal to edit and correct it or add notes. All changes will be seen only by you. Learn more »
launch autoscroll
font size
0
reset
how to read this tab
guitar tuner
edit
Autoscroll
slow
fast
+/-
esc
set tempo
stop
Author
Difficulty
About this tab version
In standard tuning, including solos. Based on Wish You Were Here Immersion Set version from 1974. Was this info helpful? Yes No
This tab is based on a live version that can be found here: https://www.youtube.com/watch?v=jqULy8xQjZU

Early version of Dogs.

[Intro]

e|-2---2--2---2--2---2--2---2--2-2-2-2-2-|
B|-3---3--3---3--3---3--3---3--3-3-3-3-3-|
G|-0---0--0---0--0---0--0---0--0-0-0-0-0-|
D|-2---2--2---2--2---2--2---2--2-2-2-2-2-| x4
A|-2---2--2---2--2---2--2---2--2-2-2-2-2-|
E|-0---0--0---0--0---0--0---0--0-0-0-0-0-|

e|-0---0--0---0--0---0--0---0--0-0-0-0-0-|
B|-1---1--1---1--1---1--1---1--1-1-1-1-1-|
G|-0---0--0---0--0---0--0---0--0-0-0-0-0-|
D|-3---3--3---3--3---3--3---3--3-3-3-3-3-| x4
A|-3---3--3---3--3---3--3---3--3-3-3-3-3-|
E|---------------------------------------|

e|-0---0--0---0--0---0--0---0--0-0-0-0-0-|
B|-0---0--0---0--0---0--0---0--0-0-0-0-0-|
G|-6---6--6---6--6---6--6---6--6-6-6-6-6-|
D|-4---4--4---4--4---4--4---4--4-4-4-4-4-| x4
A|-2---2--2---2--2---2--2---2--2-2-2-2-2-|
E|---------------------------------------|

e|-0---0--0---0--0---0--0---0--0-0-0-0-0-|
B|-5---5--5---5--5---5--5---5--5-5-5-5-5-|
G|-5---5--5---5--5---5--5---5--5-5-5-5-5-|
D|-3---3--3---3--3---3--3---3--3-3-3-3-3-| x4
A|-1---1--1---1--1---1--1---1--1-1-1-1-1-|
E|---------------------------------------|

Play all of this twice. The strumming pattern might vary as Gilmour doesn't always stick to it.

[Verse]

e|-2---2--2---2--2---2--2---2--2-2-2-2-2-|
B|-3---3--3---3--3---3--3---3--3-3-3-3-3-|
G|-0---0--0---0--0---0--0---0--0-0-0-0-0-|
D|-2---2--2---2--2---2--2---2--2-2-2-2-2-| x4
A|-2---2--2---2--2---2--2---2--2-2-2-2-2-|
E|-0---0--0---0--0---0--0---0--0-0-0-0-0-|

e|-0---0--0---0--0---0--0---0--0-0-0-0-0-|
B|-1---1--1---1--1---1--1---1--1-1-1-1-1-|
G|-0---0--0---0--0---0--0---0--0-0-0-0-0-|
D|-3---3--3---3--3---3--3---3--3-3-3-3-3-| x4
A|-3---3--3---3--3---3--3---3--3-3-3-3-3-|
E|---------------------------------------|

e|-0---0--0---0--0---0--0---0--0-0-0-0-0-|
B|-0---0--0---0--0---0--0---0--0-0-0-0-0-|
G|-6---6--6---6--6---6--6---6--6-6-6-6-6-|
D|-4---4--4---4--4---4--4---4--4-4-4-4-4-| x2
A|-2---2--2---2--2---2--2---2--2-2-2-2-2-|
E|---------------------------------------|

e|-0---0--0---0--0---0--0---0--0-0-0-0-0-|
B|-5---5--5---5--5---5--5---5--5-5-5-5-5-|
G|-5---5--5---5--5---5--5---5--5-5-5-5-5-|
D|-3---3--3---3--3---3--3---3--3-3-3-3-3-| x2
A|-1---1--1---1--1---1--1---1--1-1-1-1-1-|
E|---------------------------------------|

[Bridge]

e|-2---2--2---2--2---2--2---2--2-2-2-2-2-|
B|-3---3--3---3--3---3--3---3--3-3-3-3-3-|
G|-0---0--0---0--0---0--0---0--0-0-0-0-0-|
D|-2---2--2---2--2---2--2---2--2-2-2-2-2-| x4
A|-2---2--2---2--2---2--2---2--2-2-2-2-2-|
E|-0---0--0---0--0---0--0---0--0-0-0-0-0-|

e|-0---0--0---0--0---0--0---0--0-0-0-0-0-|
B|-1---1--1---1--1---1--1---1--1-1-1-1-1-|
G|-0---0--0---0--0---0--0---0--0-0-0-0-0-|
D|-3---3--3---3--3---3--3---3--3-3-3-3-3-| x4
A|-3---3--3---3--3---3--3---3--3-3-3-3-3-|
E|---------------------------------------|

e|-0---0--0---0--0---0--0---0--0-0-0-0-0-|
B|-0---0--0---0--0---0--0---0--0-0-0-0-0-|
G|-6---6--6---6--6---6--6---6--6-6-6-6-6-|
D|-4---4--4---4--4---4--4---4--4-4-4-4-4-| x4
A|-2---2--2---2--2---2--2---2--2-2-2-2-2-|
E|---------------------------------------|

e|-0---0--0---0--0---0--0---0--0-0-0-0-0-|
B|-5---5--5---5--5---5--5---5--5-5-5-5-5-|
G|-5---5--5---5--5---5--5---5--5-5-5-5-5-|
D|-3---3--3---3--3---3--3---3--3-3-3-3-3-| x4
A|-1---1--1---1--1---1--1---1--1-1-1-1-1-|
E|---------------------------------------|

[Verse]

Just like the first one.

[Bridge]

e|-2---2--2---2--2---2--2---2--2-2-2-2-2-|
B|-3---3--3---3--3---3--3---3--3-3-3-3-3-|
G|-0---0--0---0--0---0--0---0--0-0-0-0-0-|
D|-2---2--2---2--2---2--2---2--2-2-2-2-2-| x4
A|-2---2--2---2--2---2--2---2--2-2-2-2-2-|
E|-0---0--0---0--0---0--0---0--0-0-0-0-0-|

e|-0---0--0---0--0---0--0---0--0-0-0-0-0-|
B|-1---1--1---1--1---1--1---1--1-1-1-1-1-|
G|-0---0--0---0--0---0--0---0--0-0-0-0-0-|
D|-3---3--3---3--3---3--3---3--3-3-3-3-3-| x4
A|-3---3--3---3--3---3--3---3--3-3-3-3-3-|
E|---------------------------------------|

e|-0---0--0---0--0---0--0---0--0-0-0-0-0-|
B|-0---0--0---0--0---0--0---0--0-0-0-0-0-|
G|-6---6--6---6--6---6--6---6--6-6-6-6-6-|
D|-4---4--4---4--4---4--4---4--4-4-4-4-4-| x4
A|-2---2--2---2--2---2--2---2--2-2-2-2-2-|
E|---------------------------------------|

e|-0---0--0---0--0---0--0---0--0-0-0-0-0-|
B|-5---5--5---5--5---5--5---5--5-5-5-5-5-|
G|-5---5--5---5--5---5--5---5--5-5-5-5-5-|
D|-3---3--3---3--3---3--3---3--3-3-3-3-3-| x4
A|-1---1--1---1--1---1--1---1--1-1-1-1-1-|
E|---------------------------------------|

e|-----0----2--------2--------2h3--2----------------3p2-----------------|
B|--------3--------3----3/5----------3/5-----3/5\3-------3-------3------|
G|---0-----------4-------------------------------------------2/4----4\2-|
D|-2--------------------------------------------------------------------|
A|----------------------------------------------------------------------|
E|----------------------------------------------------------------------|

e|----------------------------------------------------------------|
B|----------------------------------------------------------------|
G|-p0----0---------0---0----------------4~--4b5r4-----------------|
D|-----4---2---2h4---7----2----2--4-4/5-----------5--2-2p0-2------|
A|--------------------------------------------------------------2-|
E|----------------------------------------------------------------|

e|-----------------0----2----1-----------------|
B|---------------2------------1----------------|
G|-------------4------4---4-3--3---------------|
D|----2-2p1-----------------------3-3/5\3------|
A|-2---------------------------------------0h1-|
E|---------------------------------------------|

[Solo]

e|-------------------------------14------------------------------------0---------|
B|-15b17r15-15~b17r15---15-15b17----15b17-15-15b17~--15b17r15-12---------3-------|
G|-----------------------------------------------------------------2/4-----4-2---|
D|-------------------------------------------------------------------------------|
A|-------------------------------------------------------------------------------|
E|-------------------------------------------------------------------------------|

e|-------15-------------------------------14--------------------------------14-|
B|-15b17----15b17r15-15~b17r15------15b17----15b17-15-15b17~---15b17r15-12-----|
G|-----------------------------------------------------------------------------|
D|-----------------------------------------------------------------------------|
A|-----------------------------------------------------------------------------|
E|-----------------------------------------------------------------------------|

e|---------------------------15---------------------------------15-17--------|
B|-15b17--13b15-13-----17b19----17b19-pb19r17p15-15b17----17b19-------15-----|
G|---------------------------------------------------------------------------|
D|---------------------------------------------------------------------------|
A|---------------------------------------------------------------------------|
E|---------------------------------------------------------------------------|

e|-----17b19-----17b19r17-15b17r15---------------------|
B|-15---------15-------------------13-------13---13/15-|
G|------------------------------------12h14------------|
D|-----------------------------------------------------|
A|-----------------------------------------------------|
E|-----------------------------------------------------|

e|-----17b19-----15b17r15-------15b17---pb17r15----|
B|-15---------15----------13-13--------------------|
G|-------------------------------------------------|
D|-------------------------------------------------|
A|-------------------------------------------------|
E|-------------------------------------------------|

[Bridge]

e|-------2------|
B|------3-------|
G|-----0--------|
D|----2---------| x10
A|--------------|
E|-0------------|

Gilmour does various random pickings on that chord.

e|---------------|
B|-5--5---7--7---|
G|-5--5---7---7--|
D|-5--5---7----7-| x4
A|-3-3--3-5------|
E|---------------|

e|-------2------|
B|------3-------|
G|-----0--------|
D|----2---------| x4
A|--------------|
E|-0------------|

e|---------------|
B|-5--5---7--7---|
G|-5--5---7---7--|
D|-5--5---7----7-| x2
A|-3-3--3-5------|
E|---------------|

e|------------7-------|
B|-------------7------|
G|-------9------8-----|
D|-----10-------------|
A|---10---------------|
E|-8-------7----------|

[Solo]

e|----------------12-15-------------------------------------------------------|
B|-15b17~---15b17-------15b17--15-12------------------------------------15b17-|
G|-----------------------------------14b16-14-12b14-12b13--9p7-9--------------|
D|----------------------------------------------------------------------------|
A|----------------------------------------------------------------------------|
E|----------------------------------------------------------------------------|

e|-12h15------------------12-15-------------------------------0-----------------------|
B|-------15b17r15---15b17-------15-12--------------------------0----------------------|
G|------------------------------------14b16-14-12b14-12\--2/4---4~--4\2-0-2p0---------|
D|----------------------------------------------------------------------------2-0-2---|
A|------------------------------------------------------------------------------------|
E|------------------------------------------------------------------------------------|

e|-------12-15p12-15--15b17----------------12-15--------------12-14--14-pb15r14p12----|
B|-15b17--------------------15b17r15-15b17-------15b17--15b17----------------------15-|
G|------------------------------------------------------------------------------------|
D|------------------------------------------------------------------------------------|
A|------------------------------------------------------------------------------------|
E|------------------------------------------------------------------------------------|

e|-12-14-g14s12------------------------------------------------------------|
B|--------------15-15b17r15--15--12----12--------------------------8-10b11-|
G|----------------------------------12----12-------------------7/9---------|
D|------------------------------------------------0-2----------------------|
A|--------------------------------------------0h2-----2--0-----------------|
E|-----------------------------------------------------3---3-0-------------|

e|--------------15p12--15p12--15p12-15p12-15p12-15p12-15p12-15p12-12-|
B|-8-----15b17~------------------------------------------------------|
G|---9~--------------------------------------------------------------|
D|-------------------------------------------------------------------|
A|-------------------------------------------------------------------|
E|-------------------------------------------------------------------|

e|-15-15b17----------------12--14b15r14b15r14--------------12-15p12-15b17r15-|
B|----------15b17~---15b17--------------------15b17--15b17-------------------|
G|---------------------------------------------------------------------------|
D|---------------------------------------------------------------------------|
A|---------------------------------------------------------------------------|
E|---------------------------------------------------------------------------|

e|-14-----------------------|
B|----12-------4-----4----0-|
G|--------------------------|
D|-----------4-----4-----4--|
A|---------2----------------|
E|---------------3-----2----|

[B-Part]

e|-------2------|
B|------3-------|
G|-----0--------|
D|----2---------| x8
A|--------------|
E|-0------------|

e|---------------|
B|-5--5---7--7---|
G|-5--5---7---7--|
D|-5--5---7----7-| x2
A|-3-3--3-5------|
E|---------------|

e|------------7-------|
B|-------------7------|
G|-------9------8-----|
D|-----10-------------|
A|---10---------------|
E|-8-------7----------|

e|-------2------|
B|------3-------|
G|-----0--------|
D|----2---------| x4
A|--------------|
E|-0------------|

e|---------------|
B|-5--5---7--7---|
G|-5--5---7---7--|
D|-5--5---7----7-| x2
A|-3-3--3-5------|
E|---------------|

e|------------7---------------|
B|-------------7-----4--4---0-|
G|-------9------8-------------|
D|-----10-----------4--4---4--|
A|---10------------2----------|
E|-8-------7----------3---2---|

[Bridge]

Various strums on the intro chord progression. The progression is played twice, then:

e|-2-2-2-2---2-2-2-2---2-2-2-2---2-2-2-2---2-2-2-2-3-3-3-3-|
B|-3-3-3-3---3-3-3-3---3-3-3-3---3-3-3-3---3-3-3-3-3-3-3-3-|
G|-0-0-0-0---0-0-0-0---0-0-0-0---0-0-0-0---0-0-0-0-0-0-0-0-|
D|-2-2-2-2---2-2-2-2---2-2-2-2---2-2-2-2---2-2-2-2-2-2-2-2-| x4
A|-2-2-2-2---2-2-2-2---2-2-2-2---2-2-2-2---2-2-2-2-2-2-2-2-|
E|-0-0-0-0---0-0-0-0---0-0-0-0---0-0-0-0---0-0-0-0-0-0-0-0-|

e|-0-0-0-0---0-0-0-0---0-0-0-0---0-0-0-0---0-0-0-0-1-1-1-1-|
B|-1-1-1-1---1-1-1-1---1-1-1-1---1-1-1-1---1-1-1-1-1-1-1-1-|
G|-0-0-0-0---0-0-0-0---0-0-0-0---0-0-0-0---0-0-0-0-0-0-0-0-|
D|-3-3-3-3---3-3-3-3---3-3-3-3---3-3-3-3---3-3-3-3-3-3-3-3-| x4
A|-3-3-3-3---3-3-3-3---3-3-3-3---3-3-3-3---3-3-3-3-3-3-3-3-|
E|---------------------------------------------------------|

e|-0-0-0-0---0-0-0-0---0-0-0-0---0-0-0-0---0-0-0-0-0-0-0-0-|
B|-0-0-0-0---0-0-0-0---0-0-0-0---0-0-0-0---0-0-0-0-0-0-0-0-|
G|-6-6-6-6---6-6-6-6---6-6-6-6---6-6-6-6---6-6-6-6-6-6-6-6-|
D|-4-4-4-4---4-4-4-4---4-4-4-4---4-4-4-4---4-4-4-4-4-4-4-4-| x2
A|-2-2-2-2---2-2-2-2---2-2-2-2---2-2-2-2---2-2-2-2-2-2-2-2-|
E|---------------------------------------------------------|

e|-0-0-0-0---0-0-0-0---0-0-0-0---0-0-0-0---0-0-0-0-0-0-0-0-|
B|-5-5-5-5---5-5-5-5---5-5-5-5---5-5-5-5---5-5-5-5-5-5-5-5-|
G|-5-5-5-5---5-5-5-5---5-5-5-5---5-5-5-5---5-5-5-5-5-5-5-5-|
D|-3-3-3-3---3-3-3-3---3-3-3-3---3-3-3-3---3-3-3-3-3-3-3-3-| x2
A|-1-1-1-1---1-1-1-1---1-1-1-1---1-1-1-1---1-1-1-1-1-1-1-1-|
E|---------------------------------------------------------|

e|-2-2-2-2---2-2-2-2---2-2-2-2---2-2-2-2---2-2-2-2-3-3-3-3-|
B|-3-3-3-3---3-3-3-3---3-3-3-3---3-3-3-3---3-3-3-3-3-3-3-3-|
G|-0-0-0-0---0-0-0-0---0-0-0-0---0-0-0-0---0-0-0-0-0-0-0-0-|
D|-2-2-2-2---2-2-2-2---2-2-2-2---2-2-2-2---2-2-2-2-2-2-2-2-| x2
A|-2-2-2-2---2-2-2-2---2-2-2-2---2-2-2-2---2-2-2-2-2-2-2-2-|
E|-0-0-0-0---0-0-0-0---0-0-0-0---0-0-0-0---0-0-0-0-0-0-0-0-|

e|-0-0-0-0---0-0-0-0---0-0-0-0---0-0-0-0---0-0-0-0-1-1-1-1-|
B|-1-1-1-1---1-1-1-1---1-1-1-1---1-1-1-1---1-1-1-1-1-1-1-1-|
G|-0-0-0-0---0-0-0-0---0-0-0-0---0-0-0-0---0-0-0-0-0-0-0-0-|
D|-3-3-3-3---3-3-3-3---3-3-3-3---3-3-3-3---3-3-3-3-3-3-3-3-| x2
A|-3-3-3-3---3-3-3-3---3-3-3-3---3-3-3-3---3-3-3-3-3-3-3-3-|
E|---------------------------------------------------------|

e|-0-0-0-0---0-0-0-0---0-0-0-0---0-0-0-0---0-0-0-0-0-0-0-0-|
B|-0-0-0-0---0-0-0-0---0-0-0-0---0-0-0-0---0-0-0-0-0-0-0-0-|
G|-6-6-6-6---6-6-6-6---6-6-6-6---6-6-6-6---6-6-6-6-6-6-6-6-|
D|-4-4-4-4---4-4-4-4---4-4-4-4---4-4-4-4---4-4-4-4-4-4-4-4-| x2
A|-2-2-2-2---2-2-2-2---2-2-2-2---2-2-2-2---2-2-2-2-2-2-2-2-|
E|---------------------------------------------------------|

e|-0-0-0-0---0-0-0-0---0-0-0-0---0-0-0-0---0-0-0-0-0-0-0-0-|
B|-5-5-5-5---5-5-5-5---5-5-5-5---5-5-5-5---5-5-5-5-5-5-5-5-|
G|-5-5-5-5---5-5-5-5---5-5-5-5---5-5-5-5---5-5-5-5-5-5-5-5-|
D|-3-3-3-3---3-3-3-3---3-3-3-3---3-3-3-3---3-3-3-3-3-3-3-3-| x2
A|-1-1-1-1---1-1-1-1---1-1-1-1---1-1-1-1---1-1-1-1-1-1-1-1-|
E|---------------------------------------------------------|

[Verse]

Just like verse 1.

[Bridge]

e|-2---2--2---2--2---2--2---2--2-2-2-2-2-|
B|-3---3--3---3--3---3--3---3--3-3-3-3-3-|
G|-0---0--0---0--0---0--0---0--0-0-0-0-0-|
D|-2---2--2---2--2---2--2---2--2-2-2-2-2-| x4
A|-2---2--2---2--2---2--2---2--2-2-2-2-2-|
E|-0---0--0---0--0---0--0---0--0-0-0-0-0-|

e|-0---0--0---0--0---0--0---0--0-0-0-0-0-|
B|-1---1--1---1--1---1--1---1--1-1-1-1-1-|
G|-0---0--0---0--0---0--0---0--0-0-0-0-0-|
D|-3---3--3---3--3---3--3---3--3-3-3-3-3-| x4
A|-3---3--3---3--3---3--3---3--3-3-3-3-3-|
E|---------------------------------------|

e|-0---0--0---0--0---0--0---0--0-0-0-0-0-|
B|-0---0--0---0--0---0--0---0--0-0-0-0-0-|
G|-6---6--6---6--6---6--6---6--6-6-6-6-6-|
D|-4---4--4---4--4---4--4---4--4-4-4-4-4-| x4
A|-2---2--2---2--2---2--2---2--2-2-2-2-2-|
E|---------------------------------------|

e|-0---0--0---0--0---0--0---0--0-0-0-0-0-|
B|-5---5--5---5--5---5--5---5--5-5-5-5-5-|
G|-5---5--5---5--5---5--5---5--5-5-5-5-5-|
D|-3---3--3---3--3---3--3---3--3-3-3-3-3-| x4
A|-1---1--1---1--1---1--1---1--1-1-1-1-1-|
E|---------------------------------------|

[Verse]

Again, like the first one.

[Bridge]

e|-2---2--2---2--2---2--2---2--2-2-2-2-2-|
B|-3---3--3---3--3---3--3---3--3-3-3-3-3-|
G|-0---0--0---0--0---0--0---0--0-0-0-0-0-|
D|-2---2--2---2--2---2--2---2--2-2-2-2-2-| x4
A|-2---2--2---2--2---2--2---2--2-2-2-2-2-|
E|-0---0--0---0--0---0--0---0--0-0-0-0-0-|

e|-0---0--0---0--0---0--0---0--0-0-0-0-0-|
B|-1---1--1---1--1---1--1---1--1-1-1-1-1-|
G|-0---0--0---0--0---0--0---0--0-0-0-0-0-|
D|-3---3--3---3--3---3--3---3--3-3-3-3-3-| x4
A|-3---3--3---3--3---3--3---3--3-3-3-3-3-|
E|---------------------------------------|

e|-0---0--0---0--0---0--0---0--0-0-0-0-0-|
B|-0---0--0---0--0---0--0---0--0-0-0-0-0-|
G|-6---6--6---6--6---6--6---6--6-6-6-6-6-|
D|-4---4--4---4--4---4--4---4--4-4-4-4-4-| x4
A|-2---2--2---2--2---2--2---2--2-2-2-2-2-|
E|---------------------------------------|

e|-0---0--0---0--0---0--0---0--0-0-0-0-0-|
B|-5---5--5---5--5---5--5---5--5-5-5-5-5-|
G|-5---5--5---5--5---5--5---5--5-5-5-5-5-|
D|-3---3--3---3--3---3--3---3--3-3-3-3-3-| x4
A|-1---1--1---1--1---1--1---1--1-1-1-1-1-|
E|---------------------------------------|

e|-------2------|
B|------3-------|
G|-----0--------|
D|----2---------| x2
A|--------------|
E|-0------------|

[Solo]

e|-------------------------------14------------------------------------3---------|
B|-15b17r15-15~b17r15---15-15b17----15b17-15-15b17~--15b17r15-12---------3-------|
G|-----------------------------------------------------------------2/4-----------|
D|-------------------------------------------------------------------------------|
A|-------------------------------------------------------------------------------|
E|-------------------------------------------------------------------------------|

e|-------15-------------------------------14------------------------------------3p2-|
B|-15b17----15b17r15-15~b17r15---15-15b17----15b17-15-15b17~---15b17r15-12----------|
G|--------------------------------------------------------------------------2/4-----|
D|----------------------------------------------------------------------------------|
A|----------------------------------------------------------------------------------|
E|----------------------------------------------------------------------------------|

e|---------------------------15----------------------------15-17--------|
B|-3b5r3--13b15-13-----17b19-----pb19r17p15-15b17----17b19-------15-----|
G|----------------------------------------------------------------------|
D|----------------------------------------------------------------------|
A|----------------------------------------------------------------------|
E|----------------------------------------------------------------------|

e|-----17b19-----17b19r17-15b17r15-----------------------|
B|-15---------15-------------------13-------13-13--13/15-|
G|------------------------------------12h14--------------|
D|-------------------------------------------------------|
A|-------------------------------------------------------|
E|-------------------------------------------------------|

e|-----17b19-----17b19--15b17r15-------------------------|
B|-15---------15-----------------13----------13-13-------|
G|-------------------------------------------------------|
D|-------------------------------------------------------|
A|-------------------------------------------------------|
E|-------------------------------------------------------|

e|-------2------|
B|------3-------|
G|-----0--------|
D|----2---------| x2
A|--------------|
E|-0------------|

[Outro]

Strummings, again, can vary.

e|-------2------|
B|------3-------|
G|-----0--------|
D|----2---------| x27
A|--------------|
E|-0------------|

e|-0---0-0-0-0-0---0-0-0-0-0-0-0-0-|
B|-1---1-1-1-1-1---1-1-1-1-1-1-1-1-|
G|-0---0-0-0-0-0---0-0-0-0-0-0-0-0-|
D|-3---3-3-3-3-3---3-3-3-3-3-3-3-3-| x2
A|-3---3-3-3-3-3---3-3-3-3-3-3-3-3-|
E|---------------------------------|

e|--------------------------------------------------2-----|
B|-4---4-4-4-4-4---4-4-4-4-4-4-4-4-4----------------3-----|
G|-4---4-4-4-4-4---4-4-4-4-4-4-4-4-4---4------------0-----|
D|-4---4-4-4-4-4---4-4-4-4-4-4-4-4-4---5---4---2-2--2-----|
A|-2---2-2-2-2-2---2-2-2-2-2-2-2-2-2---5---4--------2-----|
E|-------------------------------------3---2-0------0-----|

************************************

| h   Hammer-on
| p   Pull-off
| /   Slide up
| \   Slide down
| r   Release
| b   Bend
| ~   Vibrato
| pb  Pre-bend
| g   Grace note
| s   Slide

************************************

            
            
Suggest correction
Creating personal tab
Creating personal tab
You can edit any tab online and save it as your Personal.

You can edit, replace or remove any tab part or add personal notes – all changes will be seen only by you.

Personal tabs can be accessed anytime from any device, even offline.
Learn more »
Give kudos to tab author, rate the tab!
1 2 3 4 5
comments
print report bad tab
guest
You may want to rate the tab now too:
select rating
Wanna post a correction for this tab? Suggest correction