Oops, an error
Loading. Please wait.

Stfu Tab

1,612 views 120 this week
no commentswrite comment
1 2 3 4 5
3 more votes to show rating
add to favorites
launch autoscroll
font size
0
reset
how to read this tab
guitar tuner
Autoscroll
slow
fast
+/-
esc
set tempo
stop
Help us to improve Ultimate-Guitar.com Take our survey!
×
Author
Difficulty
Capo
novice
3rd fret
About this tab version
It has a fingerstyle version. Was this info helpful? Yes No
Shut the fuck up 
Capo on 3rd


[Verse 1]

G        
Shut the fuck up
C                   G
You're a fucking cunt
G               
Shut the fuck up
C        G      D            G
You're a stupid cunt suck my dick


[Verse 2]

G        
Shut the fuck up
C                   G
You're a fucking cunt
G  
Shut the fuck up
C      G    D         G
Nobody even wants you here

Just keep the same strumming for the entire song - like the beat drop sections and whatevernot.

FINGERSTYLE VERSION WHAT UP:

e|---------0---------------|-0-0-----0--------||
B|-----3-0---3-----------0-|-1-1-3-1-3-3-2/3--||
G|-----0-----0---0---0---0-|-0-0-0-0-0-0-0~~--||
D|--------------0---0---0--|-2---------0-0~~--||
A|-------------------------|-3----------------||
E|-----3---3-3-3----3---3--|---------3-3-2/3-3||

    Shut the fuck up   You're a fucking cunt

e|---------0---------------|------------------------------||
B|-----3-0---3-----------0-|-1-1-0-3-3--------------------||
G|-----0-----0---0---0---0-|-0-0-0-0-2-2-2/4-0~~-0--0--0--||
D|--------------0---0---0--|-2---0---0-0---0~--~0--0--0---||
A|-------------------------|-3----------------------------||
E|-----3---3-3-3----3---3--|-----3-----------3-3--3--3----||

    Shut the fuck up          Nobody even wants you here

Work it out from there guys, here's a vocaroo if you need help: 
http://vocaroo.com/i/s1LSnb7MUHW7
Note that I play it differently everytime so this isn't true to the tab but it's mostly just a bunch of slides
and like other stuff such as other string picks and whatnot.



************************************

| /  Slide up
| ~  Vibrato

************************************
Suggest correction
Give kudos to tab author, rate the tab!
1 2 3 4 5
comments
print report bad tab
guest
You may want to rate the tab now too:
select rating
Wanna post a correction for this tab? Suggest correction