Oops, an error
Loading. Please wait.

Ya No Aguanto tab

32 views 1 this week
no commentswrite comment
1 2 3 4 5
3 more votes to show rating
add to favorites
×
Save as Personal and add changes to this tab that will be seen only by you. Learn more ›
×
You can save this tab as Personal to edit and correct it or add notes. All changes will be seen only by you. Learn more »
launch autoscroll
font size
0
reset
how to read this tab
guitar tuner
edit
Autoscroll
slow
fast
+/-
esc
set tempo
stop
ojala que les guste esta rola rifada
para que asi usted la puedan tocar

(dijera Silvio Rodriges y por que no Miguel Hernandez)

---------------------------------------------------------------------------
-x-x--x-x-x-x-x---7-6-5-4-3-2-x--x--6-6-----------------------
-x-x--2-2-x-x-x---5-4-3-2-1-0-x--x--4-4-x-x-6-x-7----------
-0-0--0-0-0-0-0-------------------0--0--------x-x-4-x-5----------


MI             DO#m
ya no aguanto
         SOL#m
no quiero verte más
               LA
y no saldre
                                   MI
aunque tu vebgas por mí
                    DO#m
ya no entiendo
            SOL#m  
no quiero verte mas 
                LA
y no saldre
                                    MI
aunque tu vengas por mí (2)


-4--7-7-9-4--4-4--5--5-4-2---2----4--2---------------------------
-----------------------------------5---2----------------------------------
----------------------------------------------------------------------------
---------------------------------------------------------------------------
----------------------------------------------------------------------------
---------------------------------------------------------------------------

mientras tanto

---7------4------4-----5------------------------------------------------
---9------4------5-----5------------------------------------------------
---9------5------6-----6------------------------------------------------
---------------------------------------------------------------------------
--------------------------------------------------------------------------
--------------------------------------------------------------------------


MI                 SOL#
¿habías pensado que
                 DO#m                LA
nuestro amor puede ser eterno?
MI                 SOL#
¿habías pensado que
                 DO#m                   LA
como individuos somos pequeños?
MI         SOL#
y así unidos crecemos
          DO#m               LA
tan grandes como el cielo
MI                 SOL#
somos una réplica 
              DO#m          LA
una maqueta del universo

SOL#m                                 DO#m
por que al querernos mi amor
                             SOL#m    DO#m
tú y yo somos perpetuos
SOL#m                       DO#m
y cuando estamos juntos 
                SOL#m                    DO#m  LA 
todo el tiempo se está deteniendo


ya no aguanto...

otra ves el requinto

¿habías pensado en 
todo el tiempo que estoy perdiendo?
¿habías pensado que
nuestro amor no es perfecto?
¿sabiás que al besarte
nada estoy sintiendo?
y si te mueres por mí...
lo siento

una reacción química
es el comienzo
baja la temperatura y ya vemos
los defectos

ya no aguanto...


toda esta parte va con esto:

--------------------------------------------------------
--------------------------------------------------------
---x-x---x-x---x-x---x-x---x-x---xxx-xxx-x--------------
---x-x---x-x---x-x---x-x---x-x---xxx-xxx-x--------------
---2-2---5-5---2-2---7-7---2-2---xxx-xxx-x--------------
---0-0---3-3---0-0---5-5---0-0---xxx-xxx-x--------------

de preferencia el mute se hace colocando las manos 
tapando las cuerdas en el traste número12
y tocando las 3 primeras cuerdas

y dice:

y me pregunto:¿quédemonios piensas
cuando digo todo esto?
¡ay!qué dolor mi vida
¿no ves cómo estoy sufriendo?,¡ja!
no te quiero, no te veo 
ni siquiera te deseo
estoy harta de este juego
y por mi vete al infierno...

ya no aguanto...


y eso es todo, cualquier duda, correccion, o comentario
fabor de escrivir a ramms@
Suggest correction
Creating personal tab
Creating personal tab
You can edit any tab online and save it as your Personal.

You can edit, replace or remove any tab part or add personal notes – all changes will be seen only by you.

Personal tabs can be accessed anytime from any device, even offline.
Learn more »
Give kudos to tab author, rate the tab!
1 2 3 4 5
comments
print report bad tab
guest
Wanna post a correction for this tab? Suggest correction