Oops, an error
Loading. Please wait.

A Me Me Piace O Blues tab

1,580 views 18 this week
2 commentsread comments
1 2 3 4 5
2 more votes to show rating
add to favorites
×
Save as Personal and add changes to this tab that will be seen only by you. Learn more ›
×
You can save this tab as Personal to edit and correct it or add notes. All changes will be seen only by you. Learn more »
launch autoscroll
font size
0
reset
how to read this tab
guitar tuner
edit
Autoscroll
slow
fast
+/-
esc
set tempo
stop
Author
Difficulty
-------------------------------------------------------------------------------
                             A Me Me Piace O Blues - Pino Daniele
-------------------------------------------------------------------------------
Tabbed by:Simone brandi
E-mail:superscucciat@gmail.com

Tuning:
              re7   solM
e|---2--------2-----1------5------------------------------------------------------|
B|---3--------1-----0------5------------------------------------------------------|
G|---2--------2-----0------3------------------------------------------------------|x4 
D|--------------------------------------------------------------------------------|
A|-2-----4-5----------------------------------------------------------------------|
E|---------------3-----222--------------------------------------------------------|



************************************

| /   slide up
| \   slide down
| h   hammer-on
| p   pull-off
| ~   vibrato
| +   harmonic
| x   Mute note
| b   Bend
| pb  Pre-bend
| br  Bend release
| pbr Pre-bend release
| brb Bend release bend

************************************

            
            
Suggest correction
Creating personal tab
Creating personal tab
You can edit any tab online and save it as your Personal.

You can edit, replace or remove any tab part or add personal notes – all changes will be seen only by you.

Personal tabs can be accessed anytime from any device, even offline.
Learn more »
Give kudos to tab author, rate the tab!
1 2 3 4 5
comments
print report bad tab
2 comments total.
0 reply
Bruhja 10 Nov 08, 2015 08:17 AM

this tab not only is clearly incomplete, but it is also inaccurate i describing the chords forms and diteggiature. Maybe it is quite evident but I suggest the author to deeply revise it.

0 reply
mariobasettone 40 Nov 13, 2015 02:50 AM

this is only the intro.Are you italian?

guest
You may want to rate the tab now too:
select rating
Wanna post a correction for this tab? Suggest correction