Oops, an error
Loading. Please wait.

Ue Man chords

631 views 6 this week
no commentswrite comment
1 2 3 4 5
2 more votes to show rating
add to favorites
×
Save as Personal and add changes to this tab that will be seen only by you. Learn more ›
×
You can save this tab as Personal to edit and correct it or add notes. All changes will be seen only by you. Learn more »
launch autoscroll
font size
0
reset
transpose
0
reset
simplify chords
display chords
guitar tuner
edit
Autoscroll
slow
fast
+/-
esc
set tempo
stop
Author
Difficulty
Strumming
There is no strumming pattern for this song yet. and get +5 IQ
(/) Slide Up (\) Slide Down (h) Hammer On (p) Pull Off (b) Bend (r) Release (v) Vibrato

 E     A7     C#    F#7    B7
|X|   |5|   | 8 |   |X|   |7| 
|9|   |5|   | 8 |   |7|   |7|
|9|   |6|   | 9 |   |9|   |8| 
|9|   |5|   | 10|   |8|   |7|
|7|   |7|   | 10|   |9|   |9|
|0|   |5|   | 8 |   |X|   |7|

(INTRO)
E|----------------------- x2
B|--------8-------------- 
G|---7/9-----9--7--------
D|-----------------7-r-5- 
A|-----------------------
E|-----------------------

E|------------------------
B|--------8---------------
G|---7/9-----9--7---------
D|-----------------7--h--9 
A|-----------------------
E|-----------------------

E|-------------------------------
B|--------8--10-8h10r8--------8--
G|---7/9----------------9--9-----
D|-------------------------------
A|-------------------------------
E|-------------------------------

E|----------------------- x2
B|--------8-------------- 
G|---7/9-----9--7--------
D|-----------------7-r-5- 
A|-----------------------
E|-----------------------

E|-------10-12-10--12b------------------------
B|----12---------12------12-10--10------------ 
G|----------------------------12---9-12------- 
D|--------------------------------------------
A|--------------------------------------------
E|--------------------------------------------

E|----------------------- 
B|--------8-------------- 
G|---7/9-----9--7-------- 
D|-----------------7-r-5- 
A|-----------------------
E|-----------------------

E|----------------------------10-12-12b-----------
B|--------8--10-8h10r8-----12------------12-12----
G|---7/9----------------9----------------------9--
D|------------------------------------------------
A|------------------------------------------------
E|------------------------------------------------

E|------10-12-----16-16b----12b-12-
B|----12---------------------------
G|---------------------------------
D|---------------------------------
A|---------------------------------
E|---------------------------------

(VERSE)
E
 Ue man! Where are you going
   A7               E
  you need a girl tonight
              A7
come on with me man man man !
                     E
You will enjoy your time 
C#                      F#7
  nu poche 'e dollars to me
B7            E    B7
  e me ne faje ie

E
  Ue man I wouldn't cheat you
   A7         E
nun te preoccupa'
             A7
come on with  me man man man !
                         E
Ca tutte' quante hamma campa'
C#                        F#7
   nu poche 'e dollars to   me
B7             E    B7
   e me ne faje ie. 


(SOLO)
E  E  E  E 
E  A7  E  A7 E  
C#  F#7  B7 E B7



(VERSE)
E
  Ue man! You really enjoy
   A7                 E
the  girls was good tonight
            A7
listen to me man!
                       E
Give man money for my wine
C#                    F#7
   a few cigarettes to me
B7            E    B7
  e me ne faje ie

E
  Ue man !If you really enjoy
     A7                    E
don't worry how much you spend
          A7
listen to  me man!
                 E
I hope you under  stand
C#                       F#7
   nu poche 'e dollars to  me
B7                E    B7
  e cerca e' me capi'   

(OUTRO)
E E E E

            
            
Suggest correction
Creating personal tab
Creating personal tab
You can edit any tab online and save it as your Personal.

You can edit, replace or remove any tab part or add personal notes – all changes will be seen only by you.

Personal tabs can be accessed anytime from any device, even offline.
Learn more »
Give kudos to tab author, rate the tab!
1 2 3 4 5
comments
print report bad tab
guest
You may want to rate the tab now too:
select rating
Wanna post a correction for this tab? Suggest correction