Oops, an error
Loading. Please wait.

Viento E Terra Tab

1,478 views 6 this week
no commentswrite comment
1 2 3 4 5
please rate
add to favorites
launch autoscroll
font size
0
reset
how to read this tab
guitar tuner
Tab Pro tools
  • play this tab
  • loop segment
  • change instrument
  • show fretboard
  • metronome
Autoscroll
slow
fast
+/-
esc
set tempo
stop
Contributor
Difficulty
novice
Viento 'E Terra
(Pino Daniele)
 
 
INTRO:
 
 
basso e pianoforte
 
| B7 | B7 | B7 | B7 | E | E | E | E |
 
 
  C7+    B7          E-7       D6           G   C B7/F#  E
 
|------------------|---------------------|------------------------|
|---------------7--|--7------------------|------------------------|
|--8/9----8--9-----|-------7-----8/9--7--|------------------------|
|------------------|----------9----------|--9--------9/10---9-----|
|------------------|---------------------|------10----------------|
|------------------|---------------------|------------------------|
 
 
  E                       A-7       E7         C7+       B-7

|-----------------------|---------------|-------------------------|
|-------------------10--|---------------|--11/12--10--------------|
|-----------------------|-12--11--9--8--|-------------12--11--9---|
|--------9--10--12------|---------------|-------------------------|
|11--12-----------------|---------------|-------------------------|
|-----------------------|---------------|-------------------------|
 
 
  A-7         B7             C7+        B-7                  B7
 
|-----------------------|-----------------------------------------|
|-----------------------|-----------------------------------------|
|11/12--9---------------|-------------11--------------------------|
|----------12--10--9----|------9--12------12--9-------------------|
|--------------------12-|9--10-------------------12--10--9--------|
|-----------------------|-----------------------------------12-11-|
 
 
E-7
E passerà
 
B7
sarà un vento caldo
 
E-/B    C7+
solo pieno di pazzie
 
A-7         B7               E-7
che dal sud arriva e ti tiene sveglio
 
B7
anche se è un po' lento
 
C7+       B-7/4  A-7 B7
vedrai che correrà
 
E-7
E passerà
 
B7
lasciami gridare
  
E-        C7+
solo un po' di melodia
 
A-7         B7
se capisci va bene
 
E-7
e sinò te futte
 
B7
non puoi dirmi sempre
 
C7+           B-7
che tempo non ce n'è
 
A-7              B7
ma che tengo 'a vedè
 
C7+  B7
Ma
 
E-
c'allucche a ffà
 
D7            G
e manco 'a vuò fernì'
 
B7/F#       E
'a vita è nu muorzo
 
E7      A-7
ca nisciuno te fa dà
 
B7        C
'ncoppa a chello ca tene
 
B-7           A-
e picciò stamme a sentì
 
B7         C7+
pierde tempo a te guardà'
 
B7         B7
pierde tempo a te guardà'
 
 
| B7 | B7 | E2 | E2 | E2 | E2 |
 
 
 C7+    B7               E-7       D6       G    C   B7/F#   E
 
|------------------|---------------------|------------------------|
|---------------7--|--7------------------|------------------------|
|--8/9----8--9-----|-------7-----8/9--7--|------------------------|
|------------------|----------9----------|--9--------9/10---9-----|
|------------------|---------------------|------10----------------|
|------------------|---------------------|------------------------|
 
 
 E                        A-7       B7         C7+       B-7
 
|-----------------------|----------------|------------------------|
|-------------------10--|----------------|-11/12--10--------------|
|-----------------------|--12--11--9--8--|------------12--11--9---|
|--------9--10--12------|----------------|------------------------|
|11--12-----------------|----------------|------------------------|
|-----------------------|----------------|------------------------|
 
 
 A-7         B7          C7+        B-7                     B7
 
|----------------------|------------------------------------------|
|----------------------|----------------12--10--------------------|
|11/12--9--------------|------------11----------12--11--9--------9|
|----------12--10--9---|------9--12------------------------12--9--|
|--------------------12|-9-10-------------------------------------|
|----------------------|------------------------------------------|
 
 
 B7                E-7                 B7
 
|--------------|--6/7--7--7--7--7--|------------------------------|
|--------------|-------------------|--10--8--7-----------7--------|
|--------------|-------------------|------------9--8--9-----------|
|--------------|-------------------|------------------------9--9--|
|--------------|-------------------|------------------------------|
|--------------|-------------------|------------------------------|
 
 
 E-         C7+      A-7       B7         E-7
 
|-----------------|--------------------|--------------------------|
|---------------5-|-----------------4--|-------7--8p7--------7--8-|
|------4----------|--------2-----------|--7/8----------9--8-------|
|7--7-----7--5----|--5--5-----5--4-----|--------------------------|
|-----------------|--------------------|--------------------------|
|-----------------|--------------------|--------------------------|
 
 
 B7                         C7+         B-7         A-7   B7
 
|------------10--8-------|---11/12--10-----------|----------------|
|-----7--10--------------|----------------12--8--|--12/13----12---|
|7p8---------7---5--5--4-|----8/9---7------------|----------------|
|------------------------|----------------9---5--|---9/10----9----|
|------------------------|-----------------------|----------------|
|------------------------|-----------------------|----------------|
 
 
C7+  B7
Ma
 
E-
c'allucche a ffà
 
D7            G
e manco 'a vuò fernì'
 
B7/F#       E
'a vita è nu muorzo
 
E7      A-7
ca nisciuno te fa dà
 
B7        C
'ncoppa a chello ca tene
 
B-7           A-
e picciò stamme a sentì
 
B7         C7+
pierde tempo a te guardà'
 
B7         B7
pierde tempo a te guardà'
 
 
B7 (ad libitum)

- - -

MI2
 
-7-
-7-
-9-
-9-
-7-
---
comments
We did not receive enough feedback on this tab! Please rate:
print report bad tab
1 2 3 4 5
I want to post or [tab]
guest
You may want to rate the tab now too:
select rating
Please do not post tabs as comments. Select "correction" instead!