Oops, an error
Loading. Please wait.

1812 Overture tab

version 1
version 1

Whole song

Interactive

31,935 views 54 this week
5 commentsread comments
1 2 3 4 5
x 16
add to favorites
×
Save as Personal and add changes to this tab that will be seen only by you. Learn more ›
×
You can save this tab as Personal to edit and correct it or add notes. All changes will be seen only by you. Learn more »
launch autoscroll
font size
0
reset
how to read this tab
guitar tuner
edit
Autoscroll
slow
fast
+/-
esc
set tempo
stop
Author
1812 Overture 

E|-----------------------------------------------------------|
B|----------8---------8------------------8---------8---------|
G|-----8-10---10-8-10----8---8------8-10---10-8-10----8---8--|
D|---8----------------------------8--------------------------|
A|-----------------------------------------------------------|
E|-----------------------------------------------------------|

E|----------------------------------------------------------|
B|----------------------------------------------------------|
G|-----10-12-10----------10---------10-------8-10-8---------|
D|--10----------10----10----10----10-------8--------8----8--|
A|-----------------11----------11---------------------10----|
E|----------------------------------------------------------|

E|--------------------|
B|--------------------|
G|--8--------8--------|
D|----8----8----------|
A|------10------------|
E|--------------------|

Repeat the last three lines once - as you get to the last few notes,
start playing in the wrong key - and add a few odd notes at the end 
too

            
            
Suggest correction
Creating personal tab
Creating personal tab
You can edit any tab online and save it as your Personal.

You can edit, replace or remove any tab part or add personal notes – all changes will be seen only by you.

Personal tabs can be accessed anytime from any device, even offline.
Learn more »
comments
print report bad tab
5 comments total. Showing first comments.
0 reply
TheStig1214 193 Dec 04, 2008 03:57 PM

also the russian nat'l anthem is in it and it is...
e|----------------------------------------------------------------------
b|----------------------------------------------------------------------
g|----------------------------------------------------------------------
d|--8-10-8--------------------------------------------------------------
a|--------10-6-8-10-8-3-8-----------------------------------------------
e|----------------------------------------------------------------------

+1 reply
miguellima1188 10 Jul 02, 2016 09:30 AM

So good TheStig1214, I think that have two notes more:

e|----------------------------------------------------------------------
b|----------------------------------------------------------------------
g|----------------------------------------------------------------------
d|--8-10-8--------------------------------------------------------------
a|---------10-6-8-10-8-8-10-8-------------------------------------------
e|--------------------8-------------------------------------------------

I think so...

-2 reply
carsenburchmartinez 10 Sep 13, 2016 08:16 PM

Hallo Ich am A ROBOT!!!!!!!!!!!!!!!!!!!!!!!!!!!!!!!!!!!!!!!!!!!!!!!!!!!!!!!! MMMMMMWWWWAHAHAHAHAHAHA!!!!!!!!!!!!!!!!!!!!!!!!!!!!!!!!!!!!!! SAY GOODBYE TO YOUR PRIVATE LIFE!!!!!!!!!!!

guest
You may want to rate the tab now too:
select rating
Wanna post a correction for this tab? Suggest correction