Oops, an error
Loading. Please wait.

Dance Of The Sugar Plum Fairy Tab

version 2
version 2
23,012 views 78 this week
no commentswrite comment
1 2 3 4 5
x 20
add to favorites
×
Save as Personal and add changes to this tab that will be seen only by you. Learn more ›
×
You can save this tab as Personal to edit and correct it or add notes. All changes will be seen only by you. Learn more »
save as personal
new!
launch autoscroll
font size
0
reset
how to read this tab
guitar tuner
Autoscroll
slow
fast
+/-
esc
set tempo
stop
Author
Unregistered
e  e  e  e  e  e  e  e       e  s s e  e    e  e  s s e
e|---0-----2-----3----------|----3-0-3--2-|-----0---------|
B|---------------------4----|-------------|--4-----3-3-3--|
G|---0-----2-----3-----2---*|*------------|---------------|
D|-------------------------*|*------------|---------------|
A|--------------------------|----2------0-|------------2--|
E|0-----0-----0-----0-------|-0------0----|--2--3--0------|

   s s e  s s e    s s s s  e  s s   e  s s  e  e   e  e  s s e
e|---------------|---0---0---------|--------------|-------3-3-3--|
B|-2-2-2--1-1-1--|-0---1----0------|--------------|-1--0---------|
G|---------------|-----------------|----0----0----|--------------|
D|---------------|-----------------|------2-----4-|----2------2--|
A|-----1------0--|-----0-------3-2-|-1-------0----|-------1------|
E|-0------0------|-0--------0------|--------------|-3------------|

   s s e  s s e    s s s s e         e  s s e  e    e  e  s s e
e|-2-2-2--0-0-0--|---2---2---------|----3-0-3--2--|----0---------|
B|---------------|-4---5---4-------|----0---------|-4-----3-3-3--|
G|---------------|-----------------|-----------2--|----0------4--|
D|-----4------4--|-----------------|--------------|-4-----2------|
A|-2------4------|-2---3---2-------|--------------|--------------|
E|---------------|------------3-2--|-0------0-----|--------------|

   s s e  s s e   s  s s s e  s s   e  s s e  e    e  s s e  e
e|---------------|---0---0--------|----0---0-----|-------------|
B|-2-2-2--1-1-1--|-0---1---0------|------2----4--|----3-0-3--2-|
G|-----3------2--|-----2----------|--------------|-------------|
D|-2------2------|-2-------2--2-0-|--------4-----|-------------|
A|---------------|----------------|-4------------|-2-----------|
E|---------------|----------------|--------------|--------0----|

   e  s s e  e   e  s s e
e|-------------|---------------------|  
B|----1---1--0-|------0--------------| 
G|------2------|--------------------*|
D|--------0----|----1---2-(8th-Rest)*|
A|-0-----------|---------------------|  
E|-------------|-3--2---0------------|

e|---------------------------------|----|    
B|-----0-------1-------2-------1---|----|    
G|-----0-------2-------3-------2---|-0/-|
D|-2-------2-------2-------2-------|-/0-|
A|---------------------------------|----|
E|---------------------------------|----|

e|-----0-------2-------3-----------|----|
B|-----------------------------4---|----|
G|---------------------------------|-0/-|
D|---------------------------------|-/0-|
A|---------------------------------|----|
E|---------------------------------|----|

e|-------------------------------------0-------2---0---2---3---------|
B|-----0-------1-------2-------3-------2-------4---5---5---5---------|
G|-----0-------2-------3-------4-------------------------------------|
D|-2-------2-------2-------2-------2-------2-------------------20----|
A|---------------------------------------------------------------321-|
E|-------------------------------------------------------------------|

e|---------------------------------------------------0---0---------|
B|-----8---8---7---4---5---------------------------0---1---0-------|
G|-------9-----------------7-7-7---6-6-6---5-5-5---0---2---0-------|
D|-----9---9---7---4---5---6-6-6---5-5-5---4-4-4-------------------|
A|-----------------------------------------------------------------|
E|-----------------------------------------------------------------|

e|-----------------------------------------------------------------|
B|-----------------------------------------------------------------|
G|-----------------------------------------------------------------|
D|-------------------------------4-------------------4---4---------|
A1-------0---------------------------------------2---3---2---20----|
E|---------------3-------2---------------2-------6-------------320-|

e|-----------------------3-3-3---1-1-1---0-0-0-----2---2---------|
B|-------------------0---2-2-2---0-0-0---1-1-1---4---5---4-------|
G|---5-2-5---4---5---0---3-3-3---1-1-1---2-2-2---4---3---4-------|
D|---3---3---3---4---2---2-2-2---0-0-0---4-4-4-------------------|
A|---------------6-----------------------------------------------|
E|---------------------------------------------------------------|

e|-----------------------------------0-------2---0---2---3---------|
B|---0-------1-------2-------3-------2-------4---5---5---5---------|
G|---0-------2-------3-------4-------------------------------------|
D|-------2-------2-------2-------2-------2-------------------5420--|
A|---------------------------------------------------------------4-|
E|-----------------------------------------------------------------|

e|-------------------------------------------------0---0---------|
B|---8---8---7---4---5---------------------------0---1---0-------|
G|-----9-----------------7-7-7---6-6-6---5-5-5---0---2---0-------|
D|---9---9---7---4---5---6-6-6---5-5-5---4-4-4-------------------|
A|---------------------------------------------------------------|
E|---------------------------------------------------------------|

e|-----------------------------------------------------------2------|
B|-----------------------------------------------------------1------|
G|-----------------------------------------------------------2------|
D|---4-------421-----2-------20------0-------0---------------0------|
A|--------------42-------------420------------320-------------------|
E|-----------------------------------------------3---2---0----------|

e|------------------------------------------------------------------|
B|--------------------------------------------------------------1---|
G|------------------------------------------------------4------2----|
D|-----------------------------------------------------4-----04-----|
A|---7-4-7---6-------5-2-5---4-------3-0-3---2--------6--7----------|
E|---6---6---5-------4---4---3-------2---2---3-------7--------------|

e|----------------------------0---------------0----|
B|----0-------1-------0------1-------04------1-----|
G|---2-------2-------2------2-------2-------2------|
D|-04------04------14------3-------4-------3-------|
A|-------------------------------------------------|
E|-------------------------------------------------|

e|--------------------------------0---------------0|
B|--------0-------1-------0------1-------04------1-|
G|-------2-------2-------2------2-------2-------2--|
D|-----14------04------14------3-------4-------3---|
A|-------------------------------------------------|
E|-------------------------------------------------|

e|-----------3-------2-------3-------2----|
B|--04------4-------4-------4-------4-----|
G|-2------25------24------25------24------|
D|4---------------------------------------|
A|----------------------------------------|
E|----------------------------------------|

e|---------------3-------2-------3-------2|
B|------04------4-------4-------4-------4-|
G|-----2------25------24------25------24--|
D|----4-----------------------------------|
A|----------------------------------------|
E|----------------------------------------|

e|----2-------2-------2-------2----------|
B|---3-------4-------3-------4-----------|
G|-25------24------25------24------------|
D|-------------------------------------2-|
A|---------------------------------20----|
E|-----------------------------------32--|

e|------25-------57------5-------57----|
B|-----3-------47-------7------47------|
G|---------------------7---------------|
D|-------------------------------------|
A|-------------------------------------|
E|-------------------------------------|

e|-----------------------------------0-------2---0---2---3---------|
B|---0-------1-------2-------3-------2-------4---5---5---5---------|
G|---0-------2-------3-------4-------------------------------------|
D|-------2-------2-------2-------2-------2-------------------20----|
A|-------------------------------------------------------------321-|
E|-----------------------------------------------------------------|

e|-------------------------------------------------0---0---------|
B|---8---8---7---4---5---------------------------0---1---0-------|
G|-----9-----------------7-7-7---6-6-6---5-5-5---0---2---0-------|
D|---9---9---7---4---6---6-6-6---5-5-5---4-4-4-------------------|
A|---------------------------------------------------------------|
E|---------------------------------------------------------------|

e|-----------------------------------------------------------------|
B|-----------------------------------------------------------------|
G|-----------------------------------------------------------------|
D|-------------------------------4-------------------4---4---------|
A|-------0---------------------------------------2---3---2---20----|
E|---------------3-------2---------------2-------6-------------320-|

e|-----------------------3-3-3---1-1-1---0-0-0-----2---2---------|
B|-------------------0---2-2-2---0-0-0---1-1-1---4---5---4-------|
G|---5-2-5---4---5---0---3-3-3---1-1-1---2-2-2---4---3---4-------|
D|---3---3---3---4---2---2-2-2---0-0-0---4-4-4-------------------|
A|---------------6-----------------------------------------------|
E|---------------------------------------------------------------|

e|-----------------------------------0-------2---0---2---3-------|
B|---0-------1-------2-------3-------2-------4---5---5---5-------|
G|---0-------2-------3-------4-----------------------------------|
D|-------2-------2-------2-------2-------2-------------------5420|
A|---------------------------------------------------------------|
E|---------------------------------------------------------------|

e|--------------------------------------------------0---0--------|
B|---8---8---7---4---5---------------------------0----1---0------|
G|-----9-----------------7-7-7---6-6-6---5-5-5---0----2---0------|
D|---9---9---7---4---5---6-6-6---5-5-5---4-4-4-------------------|
A|---------------------------------------------------------------|
E|---------------------------------------------------------------|

e|---------------------------------------------------------------0-----|
B|--------------------------------------------------------------0------|
G|-------------------------------------------------------------0-------|
D|----4-------421-----2-------20------0-------0---------------2--------|
A|4--------------42-------------420------------320---------------------|
E|------------------------------------------------3---2---0------------|

e|------------------------------------------------------------------12-|
B|-----------------------------------------------------------------12--|
G|-------------------------------------------------------4--------12---|
D|------------------------------------------------------4--------------|
A|----7-4-7---6-------5-2-5---4-------3-0-3---2--------6--7------------|
E|----6---6---5-------4---4---3-------2---2---3-------7----------------|


************************************

| *  Natural harmonic
| s  Slap
| /  Slide up

************************************
Suggest correction
comments
print report bad tab
guest
Wanna post a correction for this tab? Suggest correction