Oops, an error
Loading. Please wait.

Otra Victima Mas Chords

181 views 1 this week
no commentswrite comment
1 2 3 4 5
please rate
add to favorites
launch autoscroll
font size
0
reset
transpose
0
reset
display chords
guitar tuner
Tab Pro tools
  • play this tab
  • loop segment
  • change instrument
  • show fretboard
  • metronome
×
Best way to learn
"Otra Victima Mas"
Autoscroll
slow
fast
+/-
esc
set tempo
stop
Contributor
Intro Bm G A D
e|---------------------5-----------------------------------------------------|
B|-----------3-5-7-------7--5------------------------------------------------|
G|--\4~~---4------------------7~~--------------------------------------------|
D|---------------------------------------------------------------------------|
A|---------------------------------------------------------------------------|
E|---------------------------------------------------------------------------|

Bm          G          A      D
Venías de Alsasua del Egin Eguna
Bm        G          A       D
metido en casa después de comer
Bm        G        A         D
oíste unos ruidos muy muy extraños
Bm        G          A        D
era la policía ¡te querían coger!

Bm G A D 

Bm      G          A          D
Con lo puesto te sacaron de casa
Bm     G         A           D
y te llevaron a la audiencia de Iruña
Bm    G     A         D
y sin más explicaciones
Bm     G       A         D
te trasladaron derecho a Madrid.

Bm G A D

Bm     G  A    D  Bm     G   A     D
Beste biktima bat,beste bat beste bat
Bm     G  A    D  Bm     G   A     D
Beste biktima bat,beste bat beste bat

Solo Bm G A D

e|-----------5---7--\10--10-10-10-10-7------------------------------------------|
B|-----3-5-7---------------------------10-7---5/7---7-7-8--7-5------------------|
G|-4----------------------------------------9------------------7-6--6-7---------|
D|------------------------------------------------------------------------------|
A|------------------------------------------------------------------------------|
E|------------------------------------------------------------------------------|

e|-10p9p7-10p9p7-10p9p7-10p9p7-10b(12)---10b(12)-10-9---------------------------|
B|---------------------------------------------------12-10-10-12--10------------|
G|-----------------------------------------------------------------12-11-9-9-11-|
D|------------------------------------------------------------------------------|
A|------------------------------------------------------------------------------|
E|------------------------------------------------------------------------------|

e|---------------10-8-7--------------------------10p9p7-10p9p7-10p9p7-10p9p7-10b|
B|-------7-8-10--------10-8-7---7-7-8-7-5---------------------------------------|
G|----7-9--------------------9-----------7-6-6-7--------------------------------|
D|-7-9--------------------------------------------------------------------------|
A|------------------------------------------------------------------------------|
E|------------------------------------------------------------------------------|

Bm     G       A        D
Pasaste 3 días que no olvidarás
Bm              G         A           D
humillaciones y ostias pa hacerte cantar
Bm          G       A        D
luego en la calle serás controlado
Bm     G      A         D
pero nunca dejarás de luchar!!

Bm G A D

Bm     G  A    D  Bm     G   A     D
Beste biktima bat,beste bat beste bat
Bm     G  A    D  Bm     G   A     D
Beste biktima bat,beste bat beste bat
Bm      G      A       D
Ohh oh ohhh Ohhh ohh ohhh

Bm  G   A  D  Bm  G  A   D
Presoak Kalea Amnistia Osoa


************************************

| /   slide up
| \   slide down
| h   hammer-on
| p   pull-off
| ~   vibrato
| +   harmonic
| x   Mute note
| b   Bend
| pb  Pre-bend
| br  Bend release
| pbr Pre-bend release
| brb Bend release bend

************************************



http://www.piperrak.org/
comments
We did not receive enough feedback on this tab! Please rate:
print report bad tab
1 2 3 4 5
I want to post or [tab]
guest
You may want to rate the tab now too:
select rating
Please do not post tabs as comments. Select "correction" instead!