Oops, an error
Loading. Please wait.

The Bar Is Low tab

223 views 18 this week
2 commentsread comments
1 2 3 4 5
x 3
add to favorites
×
Save as Personal and add changes to this tab that will be seen only by you. Learn more ›
×
You can save this tab as Personal to edit and correct it or add notes. All changes will be seen only by you. Learn more »
launch autoscroll
font size
0
reset
how to read this tab
guitar tuner
edit
Autoscroll
slow
fast
+/-
esc
set tempo
stop
About this tab version
Pretty straight forward. I always recommend listening to the song to familiarize yourself with the tempo and rhythm. Was this info helpful? Yes No
[Intro]
e|---------------------2----2--2--|    |-------------------|
B|---------------------3----3--3--|    |-------------------|
G|---------------------4----4--4--| X4 |-------------------|
D|------------7---4----4----4--4--|    |------------7---4--|
A|------------5---2----2----2--2--|    |------------5---2--|
D|--0--0--3-----------------------|    |--0--0--3----------|

[Verse]
  I been described as good.                    Some have even said Great!
e|-----------------------------------------------------------------------------------------|
B|-----------------------------------------------------------------------------------------|
G|-----------------------------------------------------------------------------------------|
D|--------------------------------------7---4---------------------------------------7---4--|
A|--------------------------------------5---2---------------------------------------5---2--|
D|----------------------------0--0--3-------------------------------------0--0--3----------|

  What have I done...                ...To deserve such a fate?
e|--------------------------------------------------------------------------------|
B|--------------------------------------------------------------------------------|
G|--------------------------------------------------------------------------------|
D|-----------------------------7---4---------------------------------------7---4--|
A|-----------------------------5---2---------------------------------------5---2--|
D|-------------------0--0--3-------------------------------------0--0--3----------|

  The chance seems to be...               ...quite an easy bit.
e|--------------------------------------------------------------------------------|
B|--------------------------------------------------------------------------------|
G|--------------------------------------------------------------------------------|
D|-----------------------------------7---4---------------------------------7---4--|
A|-----------------------------------5---2---------------------------------5---2--|
D|-------------------------0--0--3-------------------------------0--0--3----------|

  Those we adore just haven't..   ..spilled their secrets yet.
e|----------------------------------2---------------------------------------------|
B|----------------------------------3---------------------------------------------|
G|----------------------------------4---------------------------------------------|
D|-------------------------7---4----4---------------------------------------7--4--|
A|-------------------------5---2----2---------------------------------------5--2--|
D|---------------0--0--3--------------------------------------0--3b--0--3b--------|

    I never steal!                  I never fight!
e|--2---2---2-----------------------2---2---2----------------------|
B|--3---3---3-----------------------3---3---3----------------------|
G|--4---4---4-----------------------4---4---4----------------------|
D|--4---4---4---------------7---4---4---4---4---------------7---4--|
A|--2---2---2---------------5---2---2---2---2---------------5---2--|
D|----------------0--0--3-------------------------0--0--3----------|

    My anger's locked       up          tight!
e|--3----3-----3--------------------------------|
B|--3----3-----3--------------------------------|
G|--4----4-----4--------------------------------|
D|--4----4-----4----------------7---4-----------|
A|--2----2-----2----------------5---2---2-------|
D|--------------------0--0--3-----------2-------|

Repeat for Verse 2

[Verse 2]
You haven't climbed a mountain;
barely walked up a hill.
But that's good as gold
'cause you've never killed;
held down a job;
even snagged a raise!
Right they are to for
all the future praise.
I'm the picture
of a Noble Guy.
Now let me explain why.

[Verse 2 Ending]
e|-------------------------|
B|-------------------------|
G|-------------------------|
D|----------------7--9--7--|
A|--/5------------5--7--5--|
D|--/5---------------------|

[Chorus]
e|--------------------------------------------------------------------------------------------------------|
B|--------------------------------------------------------------------------------------------------------|
G|--------------------------------------------------------------------------------------------------------|
D|--4--4--4--4-4-4--4--4--4-4-4--4--4--4-4-4--7--9--7--------------------------------------------7--9--7--|
A|--2--2--2--2-2-2--2--2--2-2-2--2--2--2-2-2--5--7--5--5--5--5--5-5-5--5--5--5-5-5--5--5--5-5-5--5--7--5--|
D|-----------------------------------------------------5--5--5--5-5-5--5--5--5-5-5--5--5--5-5-5-----------|

e|---------------------------------------------------------------------------------------------------------|
B|---------------------------------------------------------------------------------------------------------|
G|---------------------------------------------------------------------------------------------------------|
D|------------------------------------------------------4--4--4--4-4-4--4--4--4-4-4--4--4--4-4-4--7--9--7--|
A|--2--2--2--2-2-0--0--0--0-0-5--5--5--5-5-0--0--0--0-0-2--2--2--2-2-2--2--2--2-2-2--2--2--2-2-2--5--7--5--|
D|--2--2--2--2-2-0--0--0--0-0-5--5--5--5-5-0--0--0--0-0----------------------------------------------------|

[Chorus]
See I'll tell ya so, oh I'll tell you so.
The bar is low, the bar is low.
Why I don't know. I just don't know.
The bar is low, the bar is low.
Never been exposed. They'll never know.
The bar is low, the bar is low.
Oh I'll tell you so, oh I told you so.
The bar is low, the bar is!

[Outro]
e|---------------------2----2--2-------------------------------------------------------------2----2--2--|
B|---------------------3----3--3------------------------3-----3-----3------------------------3----3--3--|
G|---------------------4----4--4---------------------4-----4-----4-----4~--------------------4----4--4--|
D|------------7---4----4----4--4------------7---4-----------------------------------7---4----4----4--4--|
A|------------5---2----2----2--2------------5---2-----------------------------------5---2----2----2--2--|
D|--0--0--3-----------------------0--0--3---------------------------------0--0--3-----------------------|

e|------------------------------------------------------|
B|------------------------------------------------------|
G|------------------------------------------------------|
D|------------7---4-----------------------------7---4\--|
A|------------5---2----2------------------------5---2\--|
D|--0--0--3------------2--------------0--0--3-----------|

[Outro]
Yeah the bar is low
and it's getting lower.
The speed of evolution
is getting slower.

************************************

| b  Bend
| /  Slide up
| ~  Vibrato
| \  Slide down

************************************

            
            
Suggest correction
Creating personal tab
Creating personal tab
You can edit any tab online and save it as your Personal.

You can edit, replace or remove any tab part or add personal notes – all changes will be seen only by you.

Personal tabs can be accessed anytime from any device, even offline.
Learn more »
Give kudos to tab author, rate the tab!
1 2 3 4 5
comments
print report bad tab
2 comments total.
0 reply
jronguitar1 76 May 22, 2017 10:27 PM

Thank you so much kohinaa and Tapier for making this tab look great!!

0 reply
ghostmasterjay 10 May 23, 2017 11:02 AM

Awesome bro! You should do the bass tab!

guest
You may want to rate the tab now too:
select rating
Wanna post a correction for this tab? Suggest correction