Oops, an error
Loading. Please wait.

Gritter Tab

146 views 3 this week
2 commentsread comments
1 2 3 4 5
2 more votes to show rating
add to favorites
×
Save as Personal and add changes to this tab that will be seen only by you. Learn more ›
×
You can save this tab as Personal to edit and correct it or add notes. All changes will be seen only by you. Learn more »
save as personal
new!
launch autoscroll
font size
0
reset
how to read this tab
guitar tuner
Autoscroll
slow
fast
+/-
esc
set tempo
stop
"Gritter" by Pitch Shifter (Submit)

tuning - high to low: DAFCGD (down 1 whole step)

use as much distortion, gain, overdrive, or otherwise noisy, grinding
fuzz effects as you can possibly come up with. this song is HEAVY

main riff
d |-----------------|------------------|
A |-----------------|------------------|
F |-----------------|------------------|
C |-----------------|------------------|
G |-5-4-3-2-5-4-3-2-|-5-4-3-2---2---2--|
D |-3-2-1-0-3-2-1-0-|-3-2-1-0---0---0--|

lead part ????
d |-12-------------------------------|
A |----------------------------------|
F |----------------------------------|
C |----------------------------------|
G |----------------------------------|
D |----------------------------------|


drum roll part (?)
d |----------------------------------|
A |----------------------------------|
F |----------------------------------|
C |----------------------------------|
G |-5-2-5-2-5-2-2-2---2---2-5--------|
D |-3-0-3-0-3-0-0-0---0---0-3--------|


cool riff
d |----------------------------------|
A |----------------------------------|
F |----------------------------------|
C |----------------------------------|
G |-5-----5-2-----2---2---2-5--------|
D |-3-----3-0-----0---0---0-3--------|
              "...desperate sounds"
Suggest correction
Give kudos to tab author, rate the tab!
1 2 3 4 5
comments
print report bad tab
2 comments total.
0 reply
Mechayoshi 249 Dec 24, 2015 03:01 PM

Sounds wrong. More like
F |-----------------|------------------|
C |-----------------|------------------|
G |-----------------|------------------|
D |-6-5-4-0-6-5-4-0-|-6-5-4-0---0---0--|

Of course that's for bass but still, the notes don't sound right on yours.

0 reply
Mechayoshi 249 Dec 24, 2015 03:02 PM

I posted correction on comments. Notes seem wrong. Formatting is okay but slightly confusing. Etc etc etc etc etc etc.

guest
Wanna post a correction for this tab? Suggest correction