Oops, an error
Loading. Please wait.

Slumped Tab

31 views 1 this week
no commentswrite comment
1 2 3 4 5
2 more votes to show rating
add to favorites
launch autoscroll
font size
0
reset
how to read this tab
guitar tuner
Autoscroll
slow
fast
+/-
esc
set tempo
stop
Help us to improve Ultimate-Guitar.com Take our survey!
×
Author
Difficulty
novice
About this tab version
Contains full write out of song. Was this info helpful? Yes No
Tabbed by J

[Verse]

Verse:
Ya darling youre out almost every night
And its getting too hard too hard to fight
oh she said baby dont you worry im alright
Yeah everything is gonna be fine

Verse 2:
Fuck you, you get drunk every night
Ya life aint supposed to be so ripe
She told me baby dont you worry im alright
Everything is gonna be fine

e|-5-5-5-5--3-3-3-3--8--8--8--8--8--8--8--8--|
B|-5-5-5-5--3-3-3-3--8--8--8--8--8--8--8--8--|
G|-5-5-5-5--4-4-4-4--9--9--9--9--9--9--9--9--| x 4
D|-7-7-7-7--5-5-5-5--10-10-10-10-10-10-10-10-|
A|-7-7-7-7--5-5-5-5--10-10-10-10-10-10-10-10-|
E|-5-5-5-5--3-3-3-3--8--8--8--8--8--8--8--8--|

[Chorus]

Chorus:
But you dont know oh you dont know a thing
Oh you dont know anything
She said you dont know you dont know a thing
You dont know anything

e|-5-5-5-5--3-3-3-3--8--8--8--8--8--8--8--8--|
B|-5-5-5-5--3-3-3-3--8--8--8--8--8--8--8--8--|
G|-5-5-5-5--4-4-4-4--9--9--9--9--9--9--9--9--| x 4
D|-7-7-7-7--5-5-5-5--10-10-10-10-10-10-10-10-|
A|-7-7-7-7--5-5-5-5--10-10-10-10-10-10-10-10-|
E|-5-5-5-5--3-3-3-3--8--8--8--8--8--8--8--8--|

Riff that plays in when the song gets quiet 
e|---------8-8-8-8-8-8-8-8--8-5----------------------|
B|-8-8-8-8----------------------8--------------------|
G|--------------------------------9-12-14-12-14-12-9-| x 1
D|---------------------------------------------------|
A|---------------------------------------------------|
E|---------------------------------------------------|
Suggest correction
Give kudos to tab author, rate the tab!
1 2 3 4 5
comments
print report bad tab
guest
You may want to rate the tab now too:
select rating
Wanna post a correction for this tab? Suggest correction