Oops, an error
Loading. Please wait.

Burden You tab

922 views 33 this week
1 commentread comment
1 2 3 4 5
x 3
add to favorites
×
Save as Personal and add changes to this tab that will be seen only by you. Learn more ›
×
You can save this tab as Personal to edit and correct it or add notes. All changes will be seen only by you. Learn more »
launch autoscroll
font size
0
reset
how to read this tab
guitar tuner
edit
Autoscroll
slow
fast
+/-
esc
set tempo
stop
There's no tab or live version up yet, I did my best though. Please feel free to comment and correct me, this
tab is far from perfect.

Check out my cover on here, maybe it helps: https://youtu.be/UDTLYaszsFs


Pity Sex  - Burden You

[Intro]

e|-------------------------------------|  
B|--3-3-3---5-5-5-5---3-3--5-5-5-5-----|  
G|--2-2-2---2-2-2-2---2-2--2-2-2-2-----|  
D|--0-0-0---0-0-0-0---0-0--0-0-0-0-----|
A|-------------------------------------|  
E|-------------------------------------|


I wanna burden you...
e|----------------------------------------------|----|-----------------|  
B|----------------------------------------------|----|-----------------|  
G|--6-6-6-6-6-6-6-6----7-7-7--9-9---7-7-7--9-9--|----|--6-6-6-6-6-6-6--|  
D|--7-7-7-7-7-7-7-7----7-7-7--7-7---7-7-7--7-7--|-x3-|--7-7-7-7-7-7-7--|
A|--7-7-7-7-7-7-7-7----5-5-5--5-5---5-5-5--5-5--|----|--7-7-7-7-7-7-7--|  
E|--5-5-5-5-5-5-5-5-----------------------------|----|--5-5-5-5-5-5-5--|
(or play A (222) and intro chords it’s the same)


[Verse]

With some more fleeting...
e|-------------------------------|  
B|-------------------------------|  
G|--9-9-9--9-9-9--9-9-9---6-6-6--|  
D|--7-7-7--7-7-7--7-7-7---7-7-7--| x4
A|--5-5-5--5-5-5--5-5-5---7-7-7--|  
E|------------------------5-5-5--|


[Pre-Chorus]
                          (and I want you...)
e|----------------------------------|  
B|----------------------------------|  
G|--------------------------6b------|  
D|--4-4-4---7-----4-4-4--7--7-------| x2
A|--4-4-4---7-----4-4-4--7--7-------|  
E|--2-2-2---5-----2-2-2--5--5-------|


[Chorus]

I never say I loved you...
e|------------------------------------------------|  
B|------------------------------------------------|  
G|--9-9-9-9---6-6-6-6-6---6-6-6-6-6-6-6-----------|  
D|--7-7-7-5---7-7-7-7-7---7-7-7-7-7-7-7-----------| x2
A|--5-5-5-5---5-5-5-5-5---7-7-7-7-7-7-7-----------|  
E|------------------------5-5-5-5-5-5-5-----------|

Don't let me go...
e|----------------------------------------------------|  
B|----------------------------------------------------|  
G|--9-9--7--6----9-9--7--6----9-9-9-9-9--11--6-6------|  
D|--7-7--7--6----7-7--7--6----7-7-7-7-7--7---6-6--7---| x2
A|--5-5--5--4----5-5--5--4----5-5-5-5-5--7---4-4--7---|  
E|------------------------------------------------5---|


I wanna burden you...
e|----------------------------|-----------------------------------------------|----|-----------------|  
B|----------------------------|-----------------------------------------------|----|-----------------|  
G|-7-7-7--9-9-9--7-7--9-9-9-9-|---6-6-6-6-6-6-6-6----7-7-7--9-9---7-7-7--9-9--|----|--6-6-6-6-6-6-6--|  
D|-7-7-7--7-7-7--7-7--7-7-7-7-|---7-7-7-7-7-7-7-7----7-7-7--7-7---7-7-7--7-7--|-x3-|--7-7-7-7-7-7-7--|
A|-5-5-5--5-5-5--5-5--5-5-5-5-|---7-7-7-7-7-7-7-7----5-5-5--5-5---5-5-5--5-5--|----|--7-7-7-7-7-7-7--|  
E|----------------------------|---5-5-5-5-5-5-5-5-----------------------------|----|--5-5-5-5-5-5-5--|
(put some flanger/phase shifter in)


[Pre-Chorus]
                          (and I want you...)
e|----------------------------------|  
B|----------------------------------|  
G|--------------------------6b------|  
D|--4-4-4---7-----4-4-4--7--7-------| x2
A|--4-4-4---7-----4-4-4--7--7-------|  
E|--2-2-2---5-----2-2-2--5--5-------|


[Chorus]

I never say I loved you...
e|------------------------------------------------|  
B|------------------------------------------------|  
G|--9-9-9-9---6-6-6-6-6---6-6-6-6-6-6-6-----------|  
D|--7-7-7-5---7-7-7-7-7---7-7-7-7-7-7-7-----------| x2
A|--5-5-5-5---5-5-5-5-5---7-7-7-7-7-7-7-----------|  
E|------------------------5-5-5-5-5-5-5-----------|

I wanna know/Don't let me go...
e|----------------------------------------------------|  
B|----------------------------------------------------|  
G|--9-9--7--6----9-9--7--6----9-9-9-9-9--11--6-6------|  
D|--7-7--7--6----7-7--7--6----7-7-7-7-7--7---6-6--7---| x2
A|--5-5--5--4----5-5--5--4----5-5-5-5-5--7---4-4--7---|  
E|------------------------------------------------5---|


[Outro]

e|----------------------------|----------------------------------------------------|  
B|----------------------------|----------------------------------------------------|  
G|-7-7-7--9-9-9--7-7--9-9-9-9-|---6-6-6-6-6-6-6-6----7-7-7--9-9---7-7-7--9-9---6---|  
D|-7-7-7--7-7-7--7-7--7-7-7-7-|---7-7-7-7-7-7-7-7----7-7-7--7-7---7-7-7--7-7---7---|
A|-5-5-5--5-5-5--5-5--5-5-5-5-|---7-7-7-7-7-7-7-7----5-5-5--5-5---5-5-5--5-5---7---|  
E|----------------------------|---5-5-5-5-5-5-5-5------------------------------5---|


************************************

| x  Dead note
| b  Bend
| ~  Vibrato

************************************
Suggest correction
Creating personal tab
Creating personal tab
You can edit any tab online and save it as your Personal.

You can edit, replace or remove any tab part or add personal notes – all changes will be seen only by you.

Personal tabs can be accessed anytime from any device, even offline.
Learn more »
Give kudos to tab author, rate the tab!
1 2 3 4 5
comments
print report bad tab
1 comment total.
0 reply
yesnomaybe 178 Oct 09, 2016 11:12 AM

might be good to include what the bass is playing. i think in the verse it is playing D-B-F#-A and in the chorus D-E-A-F#

guest
You may want to rate the tab now too:
select rating
Wanna post a correction for this tab? Suggest correction