Oops, an error
Loading. Please wait.

Coca Cola Tab

106 views 18 this week
no commentswrite comment
1 2 3 4 5
3 more votes to show rating
add to favorites
launch autoscroll
font size
0
reset
how to read this tab
guitar tuner
Autoscroll
slow
fast
+/-
esc
set tempo
stop
Help us to improve Ultimate-Guitar.com Take our survey!
×
Author
Difficulty
novice
----------------------------------------------------------------- 
                                Coca Cola - Pity Sex
----------------------------------------------------------------- 
Tabbed by: spcyj 

Tuning: Standard EADGBe



fuzz
e|---------------------------------------------------------------|
B|---------------------------------------------------------------|
G|---------------------------------------------------------------|
D|-4/7777-4/7777--5-5-5-5-5-5-5-5-55--9-9-9-9-9-9-9-99-----------|
A|----------------5-5-5-5-5-5-5-5-55--9-9-9-9-9-9-9-99-----------|
E|----------------3-3-3-3-3-3-3-3-33--7-7-7-7-7-7-7-77-----------|

e|---------------------------|
B|---------------------------|
G|---------------------------|
D|-4/77777-4\2-2/444-47-420--|
A|---------------------------|
E|---------------------------|

e|----------------------------------------------------------------------|
B|----------------------------------------------------------------------|
G|----------------------------------------------------------------------|
D|-5-5-5-5-5-5-5-5-55--9-9-9-9-9-9-9-99--7-7-7-7-7-7-7-7-7-7-7-7-7-7-7-7|
A|-5-5-5-5-5-5-5-5-55--9-9-9-9-9-9-9-99--7-7-7-7-7-7-7-7-7-7-7-7-7-7-7-7|
E|-3-3-3-3-3-3-3-3-33--7-7-7-7-7-7-7-77--5-5-5-5-5-5-5-5-5-5-5-5-5-5-5-5|

e|--------------------------------------------------------------------------------|
B|--------------------------------------------------------------------------------|
G|-11-11-11-11-11-11-11-11\9-9-9-9-9-9-9-9/14-14-14-14-14-14-14-14\7-7-7-7-7-7-7-7| x2
D|--------------------------------------------------------------------------------|
A|--------------------------------------------------------------------------------|
E|--------------------------------------------------------------------------------|

e|-1st time--||------------------------------------------------------|
B|-----------||------------------------------------------------------| x3
G|--7b~~~~~~~||---7-9-7-9-11-9-7-2/44-4-2--/7~7-9-7-9-11-9-7---------|
D|--0--------||---0-0-0-0-0--0-0--------------0-0-0-0-0--0-0---------|
A|-----------||------------------------------------------------------|
E|-----------||------------------------------------------------------|

e|-4th time------------------------------------------------------|
B|---------------------------------------------------------------|
G|-7-9-7-9-11-9-7-2/44-4-2--/6-6-6-6-6-6/7-7---------------------|
D|-0-0-0-0-0--0-0------------------------------------------------|
A|---------------------------------------------------------------|
E|---------------------------------------------------------------|

clean
e|---------------------------------------------------------------|
B|---------------------------------------------------------------|
G|-9p7-7-7~~-7/11---------9p7-7-7~~-6~-6-6-6-6/7-7-7-------------|
D|-x---x-x---x-x-----x5---x---x-x---x--x-x-x-x-x-x-x--last time--|
A|-x---x-x---x-x----------x---x-x---x--x-x-x-x-x-x-x-------------|
E|-7---7-7~~-7/10---------7---7-7~~-5~-5-5-5-5/7-7-7-------------| 

fuzz
e|-------------------------------------------------------------------|
B|-------------------------------------------------------------------| x2
G|-------------------------------------------------------------------|
D|-5-5-5-5-5-5-5-5-5-5-5-5-5-5-5-5--9-9-9-9-9-9-9-9--7-7-7-7-7-7-7-7-|
A|-5-5-5-5-5-5-5-5-5-5-5-5-5-5-5-5--9-9-9-9-9-9-9-9--7-7-7-7-7-7-7-7-|
E|-3-3-3-3-3-3-3-3-3-3-3-3-3-3-3-3--7-7-7-7-7-7-7-7--5-5-5-5-5-5-5-5-|

e|--------------------------------------------------------------------|
B|--------------------------------------------------------------------| x2
G|-----------------------------------4-4-4-4-4-4-4-4--7-7-7-7-7-7-7-7-|
D|-5-5-5-5-5-5-5-5--2-2-2-2-2-2-2-2--4-4-4-4-4-4-4-4--7-7-7-7-7-7-7-7-|
A|-5-5-5-5-5-5-5-5--2-2-2-2-2-2-2-2--2-2-2-2-2-2-2-2--7-7-7-7-7-7-7-7-|
E|-3-3-3-3-3-3-3-3--0-0-0-0-0-0-0-0-------------------5-5-5-5-5-5-5-5-|

clean
e|-------------------|
B|-------------------| repeat until the end
G|-9p7-7-7~~-7/11----|
D|-x---x-x---x-x-----|
A|-x---x-x---x-x-----|
E|-7---7-7~~-7/10----| 


| /  slide up
| \  slide down
| h  hammer-on
| p  pull-off
| ~  vibrato
| +  harmonic
| x  Mute note
Suggest correction
Give kudos to tab author, rate the tab!
1 2 3 4 5
comments
print report bad tab
guest
You may want to rate the tab now too:
select rating
Wanna post a correction for this tab? Suggest correction