Oops, an error
Loading. Please wait.

Maybe tab

34 views 3 this week
no commentswrite comment
1 2 3 4 5
3 more votes to show rating
add to favorites
×
Save as Personal and add changes to this tab that will be seen only by you. Learn more ›
×
You can save this tab as Personal to edit and correct it or add notes. All changes will be seen only by you. Learn more »
launch autoscroll
font size
0
reset
how to read this tab
guitar tuner
edit
Autoscroll
slow
fast
+/-
esc
set tempo
stop
[Intro]


e|-----3----------|-------3--------|
B|----3-----------|------3---------|
G|---0------------|----0-----------|
D|----------------|----------------|        3x
A|--3-------------|----------------|
E|----------------|--3-------------|

e|------3---------|------2---------|
B|-----3----------|-----3----------|
G|----0-----------|----2-----------|
D|----------------|--0-------------|        1x
A|--2-------------|----------------|
E|----------------|----------------|

[Verse]


e|-----3----------|-------3--------|
B|----3-----------|------3---------|
G|---0------------|----0-----------|
D|----------------|----------------|        10 x
A|--3-------------|----------------|
E|----------------|--3-------------|

I guess she loves to mess with my head
Is it a crime that I don't hate it?
But my stomach can't really take it either

I turn to nothing when she smiles and laughs at me
A strange kind of happy
And these stupid little things that make me think "Maybe"
"Maybe us"

        Cadd9                      G
And I, I know you love to dance to music
         Cadd9             G
But you cry at almost everything
         Cadd9           G               Em7  D
But that's the part of you I love the most

        Cadd9     G        Cadd                G
And you act so drunk even when you're completely sober
         Cadd9                  G                Em7 D
And that proves to me just how crazy you really are
But maybe I'm crazy too
              Cadd9
For thinking maybe we could make it far

e|-----3----------|-------3--------|
B|----3-----------|------3---------|
G|---0------------|----0-----------|
D|----------------|----------------|        4x
A|--3-------------|----------------|
E|----------------|--3-------------|

e|------3---------|------2---------|
B|-----3----------|-----3----------|
G|----0-----------|----2-----------|
D|----------------|--0-------------|        1x
A|--2-------------|----------------|
E|----------------|----------------|

And I only know how to hurt
But I promise my best to love you
Yeah, I promise my best to love you
Then maybe this could work


e|-----2----------|-------2--------|
B|----2-----------|------2---------|
G|---0------------|----0-----------|
D|----------------|----------------|        4x
A|--3-------------|----------------|
E|----------------|--3-------------|

e|------2---------|------2---------|
B|-----2----------|-----3----------|
G|----0-----------|----2-----------|
D|----------------|--0-------------|        1x
A|--2-------------|----------------|
E|----------------|----------------|


And you think everything's a joke
But I swear by my life to love you
And I'll swear by all my "I love you"s
Then maybe this wouldn't hurt

e|-----3----------|-------3--------|
B|----3-----------|------3---------|
G|---0------------|----0-----------|
D|----------------|----------------|       
A|--3-------------|----------------|
E|----------------|--3-------------|

e|------2---------|------2---------|
B|-----2----------|-----3----------|
G|----0-----------|----2-----------|
D|----------------|--0-------------|       
A|--2-------------|----------------|
E|----------------|----------------|


Ooooohhhhh...
Ooooohhhhh...

/single plucks/

      Caddd9                     G          D
So I, I hope you love when I dance with you, too
Cadd9                      G        D            Cadd9
I'll never cry but I'll hold you tight when you do
                G        D        Cadd9
Tonight I'll dream you held me, too

e|-----3----------|-------2--------|
B|----3-----------|------3---------|
G|---0------------|----0-----------|
D|----------------|----------------|        3x
A|--3-------------|----------------|
E|----------------|--3-------------|

e|------3---------|------2---------|
B|-----3----------|-----3----------|
G|----0-----------|----2-----------|
D|----------------|--0-------------|        1x
A|--2-------------|----------------|
E|----------------|----------------|

And I'm never drunk 
Though you can't stand if I pour another
Would it mean anything to you like it did before?

        Cadd9          G
And when I feel her breath next to mine
Cadd9                 G
My heart beats faster than she can say "hello"
Cadd9            G                Em7 D
There's just too little that we know
        Cadd9      G
So I'll swallow my pride
      Cadd9                  G
And pretend I had hoped for nothing
      Cadd9                   G
But dear, please tell me one thing
         Cadd9                  G
Would I lie if I said there was something?
         D
Cause if there's something

     Cadd9       G
Would you be my lady?
            Cadd9       G
Yeah, let's both be crazy
Cadd9
Maybe

            
            
Suggest correction
Creating personal tab
Creating personal tab
You can edit any tab online and save it as your Personal.

You can edit, replace or remove any tab part or add personal notes – all changes will be seen only by you.

Personal tabs can be accessed anytime from any device, even offline.
Learn more »
Give kudos to tab author, rate the tab!
1 2 3 4 5
comments
print report bad tab
guest
You may want to rate the tab now too:
select rating
Wanna post a correction for this tab? Suggest correction