Oops, an error
Loading. Please wait.

Mama Do Uh Oh Uh Oh Live Acoustic Tab

2,007 views 1 this week
no commentswrite comment
1 2 3 4 5
3 more votes to show rating
add to favorites
launch autoscroll
font size
0
reset
how to read this tab
guitar tuner
Autoscroll
slow
fast
+/-
esc
set tempo
stop
Help us to improve Ultimate-Guitar.com Take our survey!
×
Tune down ½ step

       Em
x----x|7\----x-----------x-----|------x---------x-------|
x----x|8\----x-----------x-----|------x---------x-------|
x----x9|9\----x-----------x-----|------x---------x------|
x----x|9\----x-----------x-----|------x---------x-x-----|
x----x|7\----x-----------x-----|------x---------x-7\----|
------|------------------------|------------------------|
             O   oh      o      oh 


|------7)-(7)-----(7)----|-----(7)-(7)-----(7)----|
|------8)-(8)-----(8)----|-----(8)-(8)-----(8)----|
|------9---9-------9-----|------9---9-------9-----|
|------9---9-------9-----|------9---9-------9-----|
|------7---7-------7-----|------7---7-------7-----|
|0-----------------------|0-----------------------|
 Every ni. I go                 Every ni. I go

 Am
|-----(5)-(5)-----(5)----|-----(5)-(5)-----(5)----|
|-----(5)-(5)-----(5)----|-----(5)-(5)-----(5)----|
|------5---5-------5-----|------5---5--------5----|
|------7---7-------7-----|------7---7--------7----|
|------7---7-------7-----|------7---7--------7----|
/5-----------------------|5-----------------------|
 Snea. out.  Door                               I

 B 
|------7---7-------7-----|------7---7-------7-----|
|------7---7-------7-----|------7---7-------7-----|
|------8---8-------8-----|------8---8-------8-----|
|------9---9-------9-----|------9---9-------9-----|
|------9---9-------9-----|------9---9-------9-----|
|7-----------------------|7-----------------------|
 lie a lit.  more                     baby  I’m

 Em
|------7---7-------7-----|------7---7-------------|
|------8---8-------8-----|------8---8-------------|
|------9---9-------9-----|------9---9-------------|
|------9---9-------9-----|------9---9-------------|
|7-----------------------|7-----------------------|
|------------------------|------------7h8---7-----|
 helpless                                     There’s


|------7---7-------7-----|------7---7-------7-----|
|------8---8-------8-----|------8---8-------8-----|
|------9---9-------9-----|------9---9-------9-----|
|------9---9-------9-----|------9---9-------9-----|
|------7---7-------7-----|------7---7-------7-----|
|0-----------------------|0-----------------------|
 som. ‘bout. Night              and.  way.  hides

 Am
|------5---5-------5-----|------5---5-------5-----|
|------5---5-------5-----|------5---5-------5-----|
|------5---5-------5-----|------5---5-------5-----|
|------7---7-------7-----|------7---7-------7-----|
|------7---7-------7-----|------7---7-------7-----|
/5|----------------------|5-----------------------|
 all.  thin. like                           little

 B
|------7---7-------7-----|------7---7-------7-----|
|------7---7-------7-----|------7---7-------7-----|
|------8---8-------8-----|------8---8-------8-----|
|------9---9-------9-----|------9---9-------9-----|
|------9---9-------9-----|------9---9-------9-----|
/7-----------------------|7-----------------------|
 black butterflies                         deep in

 Em
|------7---7-------7-----|7\----x-----------------|
|------8---8-------8-----|8\----x-----------------|
|------9---9-------9-----|9\----x-----------------|
|------9---9-------9-----|9\----x-----------------|
|------7---7-------7-----|7\----x---------.-------|
|0-----------------------|----------------3-3-----|
 side  me                       what  would my

 Am
|------5---5-------5-----|------5---5-------5\----|
|------5---5-------5-----|------5---5-------5\----|
|------5---5-------5-----|------5---5-------5\----|
|------7---7-------7-----|------7---7-------7\----|
|------7---7-------7-----|------7---7-------7\----|
|5-----------------------|5-----------------------|
 ma                ma  do

 Em
|------7---7-------7-----|------7---7-------7\----|
|------8---8-------8-----|------8---8-------8\----|
|------9---9-------9-----|------9---9-------9\----|
|------9---9-------9-----|------9---9-------9\----|
|------7---7-------7-----|------7---7-------7\----|
|0-----------------------|0-----------------------|
       o     oh    o      oh ‘f she   knew ‘bout

 B
|------7---7-------7-----|------7---7-------7-----|
|------7---7-------7-----|------7---7-------7-----|
|------8---8-------8-----|------8---8-------8-----|
|------9---9-------9-----|------9---9-------9-----|
|------9---9-------9-----|------9---9-------9-----|
|7-----------------------|7-----------------------|
 me                and you

 Em
|------7---7-------7-----|-----7------------------|
|------8---8-------8-----|-----8------------------|
|------9---9-------9-----|-----9------------------|
|------9---9-------9-----|-----9------------------|
|------7---7-------7-----|-----7------------------|
|0-----------------------|0-----------3-----4-----|
       O     oh    o      oh    what  would my

 Am
|------5---5-------5-----|------5---5-------5-----|
|------5---5-------5-----|------5---5-------5-----|
|------5---5-------5-----|------5---5-------5-----|
|------7---7-------7-----|------7---7-------7-----|
|------7---7-------7-----|------7---7-------7-----|
|5-----------------------|5-----------------------|
 da                ddy say

 Em
|------7---7-------7-----|------7---7-------7\----|
|------8---8-------8-----|------8---8-------8\----|
|------9---9-------9-----|------9---9-------9\----|
|------9---9-------9-----|------9---9-------9\----|
|------7---7-------7-----|------7---7-------7\----|
|0-----------------------|0-----------------------|
       o     oh    o      oh    he    saw   me

 B
|------7---7-------7-----|------7---7-------7-----|
|------7---7-------7-----|------7---7-------7-----|
|------8---8-------8-----|------8---8-------8-----|
|------9---9-------9-----|------9---9-------9-----|
|------9---9-------9-----|------9---9-------9-----|
/7-----------------------|7-----------------------|
 hurt              this way

 Em
|7\----x-----------x-----|------x---x-----x-x-----|
|8\----x-----------x-----|------x---x-----x-x-----|
|9\----x-----------x-----|------x---x-----x-x-----|
|9\----x-----------x-----|------x---x-----x-x-----|
|7\----x-----------x-----|------x---x-----x-7\----|
|------------------------|------------------------|
       o     oh    o      oh

                                     [pm-----]
|------------------------|------x---x-------------|
|------------------------|------x---x-------------|
|------------------------|------x---x-------------|
|------------------------|------x---x-------------|
|------------------------|------x---x-5---5-6-----|
|0-----------------------|------------------------|
       o     oh    o       oh                  why


|------7---7-------7-----|------7---7-------7-----|
|------8---8-------8-----|------8---8-------8-----|
|------9---9-------9-----|------9---9-------9-----|
|------9---9-------9-----|------9---9-------9-----|
|7-----------------------|------7---7-------7-----|
|------------------------|0-----------------------|
 shou. feel ashamed             feel. guil. at  the

 Am
|------5---5-------5-----|------5---5-------5-----|
|------5---5-------5-----|------5---5-------5-----|
|------5---5-------5-----|------5---5-------5-----|
|------7---7-------7-----|------7---7-------7-----|
|------7---7-------7-----|------7---7-------7-----|
/5-----------------------|5-----------------------|
 ment. of.   name                           oh

 B
|------7---7-------7-----|------7---7-------7-----|
|------7---7-------7-----|------7---7-------7-----|
|------8---8-------8-----|------8---8-------8-----|
|------9---9-------9-----|------9---9-------9-----|
|------9---9-------9-----|------9---9-------9-----|
|7-----------------------|7-----------------------|
 hee.  are  again                        its nearly

 Em
|------7---7-------7-----|x-----x-----x---x-x-----|
|------8---8-------8-----|x-----x-----x---x-x-----|
|------9---9-------9-----/9-----7-----5---5-4-----|
|------9---9-------9-----|x-----x-----x---x-x-----|
|------7---7-------7-----/7-----5-----3---3-2-----|
|0-----------------------|------------------------|
 perfect                        what  would my

 Am                       Am9
|------5---5-------5-----|------7---7-------7-----|
|------5---5-------5-----|------5---5-------5-----|
|------5---5-------5-----|------5---5-------5-----|
|------7---7-------7-----|------5---5-------5-----|
|------7---7-------7-----|------7---7-------7-----|
|5-----------------------|5-----------------------|
 ma                ma  do         

 Em
|------7---7-------7-----|------7----7-------7----|
|------8---8-------8-----|------8----8-------8----|
|------9---9-------9-----|------9----9-------9----|
|------9---9-------9-----|------9----9-------9----|
|------7---7-------7-----|------7----7-------7----|
|0-----------------------|0-----------------------|
       o     oh    o      oh ‘f she   knew ‘bout

 B
|------7---7-------7-----|------7---7-------7-----|
|------7---7-------7-----|------7---7-------7-----|
|------8---8-------8-----|------8---8-------8-----|
|------9---9-------9-----|------9---9-------9-----|
|------9---9-------9-----|------9---9-------9-----|
/7-----------------------|7-----------------------|
 me                and you

 Em
|------7---7-------7-----|------7-----------------|
|------8---8-------8-----|------8-----------------|
|------9---9-------9-----|------9-----------------|
|------9---9-------9-----|------9-----------------|
|------7---7-------7-----|------7-----------------|
|0-----------------------|0-----------3---3-4-----|
       o     oh    o      oh    what  would my

 Am                       Am13
|------5---5-------5-----|------5---5-------5-----|
|------5---5-------5-----|------7---7-------7-----|
|------5---5-------5-----|------5---5-------5-----|
|------7---7-------7-----|------5---5-------5-----|
|------7---7-------7-----|------7---7-------7-----|
/5-----------------------|5-----------------------|
 da                ddy say

 Em
|------7---7-------7-----|------7---7-------7\----|
|------8---8-------8-----|------8---8-------8\----|
|------9---9-------9-----|------9---9-------9\----|
|------9---9-------9-----|------9---9-------9\----|
|------7---7-------7-----|------7---7-------7\----|
|0-----------------------|0-----------------------|
       o     oh    o      oh ‘f he    saw   me

 B
|------7---7-------7-----|------7---7-------7-----|
|------7---7-------7-----|------7---7-------7-----|
|------8---8-------8-----|------8---8-------8-----|
|------9---9-------9-----|------9---9-------9-----|
|------9---9-------9-----|------9---9-------9-----|
/7-----------------------|7-----------------------|
 hurt              this way

 Em
|------7---7-------7-----|------7---7-------7\----|
|------8---8-------8-----|------8---8-------8\----|
|------9---9-------9-----|------9---9-------9\----|
|------9---9-------9-----|------9---9-------9\----|
|------7---7-------7-----|------7---7-------7\----|
|0-----------------------|0-----------------------|
       o     oh    o      oh


|------7---7-------7-----|------7-----------------|
|------8---8-------8-----|------8-----------------|
|------9---9-------9-----|------9-----------------|
|------9---9-------9-----|------9-----------------|
|------7---7-------7-----|------7-----------------|
|0-----------------------|0-----------3---3-4-----|
                          What  woul. ma    ma

 Am
|------5---5-------5-----|------5---5-------5-----|
|------5---5-------5-----|------5---5-------5-----|
|------5---5-------5-----|------5---5-------5-----|
|------7---7-------7-----|------7---7-------7-----|
|------7---7-------7-----|------7---7-------7-----|
|5-----------------------|5-----------------------|
 do                             ah  ah      ooh ooh

 B
|------7---7-------7-----|------7---7-------7-----|
|------7---7-------7-----|------7---7-------7-----|
|------8---8-------8-----|------8---8-------8-----|
|------9---9-------9-----|------9---9-------9-----|
|------9---9-------9-----|------9---9-------9-----|
/7-----------------------|7-----------------------|
                            wha.woul. Daddy    say

 Em                                       C
|------7---7-------7-----|------7---7-x---8-------|
|------8---8-------8-----|------8---8-x---8-------|
|------9---9-------9-----|------9---9-x---9-------|
|------9---9-------9-----|------9---9-x---10------|
|------7---7-------7-----|------7---7-x---10------|
|0-----------------------|0---------------8-------|
     

 B                                        C
|7\----x---x-------x-----|------x---x-x---8-------|
|7\----x---x-------x-----|------x---x-x---8-------|
|8\----x---x-------x-----|------x---x-x---9-------|
|9\----x---x-------x-----|------x---x-x---10------|
|9\----x---x-------x-----|------x---x-x---10------|
|7\----x---x-------x-----|------x---x-x---8-------|
       all.  things    a  girl  shou. know

 B                                        C
|7\----x---x-------x-----|------x---x-x---8-------|
|7\----x---x-------x-----|------x---x-x---8-------|
|8\----x---x-------x-----|------x---x-x---9-------|
|9\----x---x-------x-----|------x---x-x---10------|
|9\----x---x-------x-----|------x---x-x---10------|
|7\----x---x-------x-----|------x---x-x---8-------|
       all.  things   she cant  con   trol

 B                                        C
|7\----x---x-------x-----|------x---x-x---8-------|
|7\----x---x-------x-----|------x---x-x---8-------|
|8\----x---x-------x-----|------x---x-x---9-------|
|9\----x---x-------x-----|------x---x-x---10------|
|9\----x---x-------x-----|------x---x-x---10------|
|7\----x---x-------x-----|------x---x-x---8-------|
       all.  things    a  girl  shou. know

 B
|7-----7-----7-----7---7-|7---7-7---7-7---7-7-----|
|7-----7-----7-----7---7-|7---7-7---7-7---7-7-----|
|8-----8-----8-----8---8-|8---8-8---8-8---8-8-----|
|9-----9-----9-----9---9-|9---9-9---9-9---9-9-----|
|9-----9-----9-----9---9-|9---9-9---9-9---9-9-----|
|7-----7-----7-----7---7-|7---7-7---7-7---7-7-----|
       she   cant  con    trol  what  would my

 Am
|------5---5-------5-----|------5---5-------5-----|
|------5---5-------5-----|------5---5-------5-----|
|------5---5-------5-----|------5---5-------5-----|
|------7---7-------7-----|------7---7-------7-----|
|------7---7-------7-----|------7---7-------7-----|
|5-----------------------|5-----------------------|
 ma                ma  do

 
|------7---7-------7-----|------7---7-------7-----|
|------8---8-------8-----|------8---8-------8-----|
|------9---9-------9-----|------9---9-------9-----|
|------9---9-------9-----|------9---9-------9-----|
|------7---7-------7-----|------7---7-------7-----|
|0-----------------------|0-----------------------|
                             ‘f she   knew about

 B
|------7---7-------7-----|------7---7-------7-----|
|------7---7-------7-----|------7---7-------7-----|
|------8---8-------8-----|------8---8-------8-----|
|------9---9-------9-----|------9---9-------9-----|
|------9---9-------9-----|------9---9-------9-----|
/7-----------------------|7-----------------------|
 me                and    you………………………………......

 Em7
|------10--10------10---|x---x-x-----x---x-x-----|
|------8---8-------8----|x---x-x-----x---x-x-----|
|------7---7-------7----/9---9-7-----5---5-4-----|
|------9---9-------9----|x---x-x-----x---x-x-----|
|------7---7-------7----/7---7-5-----3---3-2-----|
|0----------------------|------------------------|
                               what  would my

 Am                                         B
|------5---5-------5-----|------5---------5-7-----|
|------5---5-------5-----|------5---------5-7-----|
|------5---5-------5-----|------5---------5-8-----|
|------7---7-------7-----|------7---------7-9-----|
|------7---7-------7-----|------7---------7-9-----|
|5-----------------------|5-----------5---5-7-----|
       da          ddy say………………………………......yeah

 Em
|------7---7-------7-----|------7---7-------7-----|
|------8---8-------8-----|------8---8-------8-----|
|------9---9-------9-----|------9---9-------9-----|
|------9---9-------9-----|------9---9-------9-----|
|------7---7-------7-----|------7---7-------7-----|
|0-----------------------|0-----------------------|
                             if he    saw   me

 B
|------7---7-------7-----|------7---7-------7-----|
|------7---7-------7-----|------7---7-------7-----|
|------8---8-------8-----|------8---8-------8-----|
|------9---9-------9-----|------9---9-------9-----|
|------9---9-------9-----|------9---9-------9-----|
/7-----------------------|7-----------------------|
 hurt              this way

 Em
|7\--x-------------x-----|------x---x-x---x-------|
|8\--x-------------x-----|------x---x-x---x-------|
|9\--x-------------x-----|------x---x-x---x-------|
|9\--x-------------x-----|------x---x-x---x-------|
|7\--x-------------x-----|------x---x-x---x-7\----|
|------------------------|------------------------|
       o     oh    o      oh                ooh


|------------------------|------------------------|
|------------------------|------------------------|
|------------------------|------------------------|
|2-----------------------|------------------------|
|2-----------------------|------------------------|
|0-----------------------|------------------------|
       o     oh    o      oh
Suggest correction
Give kudos to tab author, rate the tab!
1 2 3 4 5
comments
print report bad tab
guest
You may want to rate the tab now too:
select rating
Wanna post a correction for this tab? Suggest correction