Oops, an error
Loading. Please wait.

All I Think About Now Bass Tab

version 1
version 1

Whole song

Interactive

199 views 9 this week
no commentswrite comment
1 2 3 4 5
1 last vote to show rating
add to favorites
launch autoscroll
font size
0
reset
guitar tuner
Autoscroll
slow
fast
+/-
esc
set tempo
stop
Help us to improve Ultimate-Guitar.com Take our survey!
×
INTRO

G|----------------------------------------------------------------------------------------------|
D|----------------------------------------------------------------------------------------------|
A|-6-6-6-6-6-6-6-6-6-6-6-6-6-6-6-6-6-6-------------------------6-6-6-6--------------------------|
E|-------------------------------------3-3-3-3-4-4-4-4-6-6-6-6---------3-3-3-3-4-4-4-4-6-6-6-6--|

G|------------------------------------------------------------------------------------------|
D|------------------------------------------------------------------------------------------|
A|-6-6-6-6-------------------------3-3-3-3---------4-4-4-4-3-3-3-3-----------------2--5-----|
E|---------3-3-3-3-4-4-4-4-6-6-6-6---------3-3-3-3-----------------4-4-4-4-4-4-4-4----------|

VERSE

G|------------------------------------------------------------------|
D|------------------------------------------------------------------|
A|-3-3-3-3-------------------------6-6-6-6--------------------------|
E|---------3-3-3-3-4-4-4-4-6-6-6-6---------3-3-3-3-4-4-4-4-6-6-6-6--|

G|---------------------------------------------------------------------------|
D|---------------------------------------------------------------------------|
A|-3-3-3-3---------4-4-4-4-3-3-3-3-------------------2--5--------------------|
E|---------3-3-3-3-----------------4-4-4-4-4-4-4-4-4-------------------------|

G|------------------------------------------------------------------|
D|------------------------------------------------------------------|
A|-3-3-3-3-------------------------6-6-6-6-6-6-6-6-6-6--------------|
E|---------3-3-3-3-4-4-4-4-6-6-6-6----------------------------------|

G|---------------------------------------------------------------------------|
D|---------------------------------------------------------------------------|
A|-6-6-6-6-------------------------4-4-4-4-3-3-3-3-----------------2--5------|
E|---------3-3-3-3-4-4-4-4-6-6-6-6-----------------4-4-4-4-4-4-4-4-----------|

G|------------------------------------------------------------------|
D|------------------------------------------------------------------|
A|-3-3-3-3-------------------------6-6-6-6--------------------------|
E|---------3-3-3-3-4-4-4-4-6-6-6-6---------3-3-3-3-4-4-4-4-6-6-6-6--|

G|---------------------------------------|
D|---------------------------------------|
A|-6-6-6-6-------------------------------|
E|---------3-3-3-3-4-4-4-4-6-6-6-6-------|

G|------------------------------------------------------------------------------------------|
D|------------------------------------------------------------------------------------------|
A|-6-6-6-6-------------------------3-3-3-3---------4-4-4-4-3-3-3-3-----------------2--5-----|
E|---------3-3-3-3-4-4-4-4-6-6-6-6---------3-3-3-3-----------------4-4-4-4-4-4-4-4----------|

G|---------------------------------------|
D|---------------------------------------|
A|-3-3-3-3-------------------------------|
E|---------3-3-3-3-4-4-4-4-6-6-6-6-------|

G|---------------------------------------------------------------------------|
D|---------------------------------------------------------------------------|
A|-6-6-6-6-10-10-10-10-9-9-9-9-4-4-4-4-6-6-6-6-10-10-10-10-9-9-9-9-4-4-4-4---|
E|---------------------------------------------------------------------------|

G|---------------------------------------------------------------------------|
D|---------------------------------------------------------------------------|
A|-6-6-6-6-10-10-10-10-9-9-9-9-4--5------------------------------------------|
E|---------------------------------------------------------------------------|

G|---------------------------------------------------------------------------|
D|---------------------------------------------------------------------------|
A|-6-6-6-6-------------------------4-4-4-4-3-3-3-3-----------------2--5------|
E|---------3-3-3-3-4-4-4-4-6-6-6-6-----------------4-4-4-4-4-4-4-4-----------|

G|---------------------------------------|
D|---------------------------------------|
A|-3-3-3-3-------------------------------|
E|---------3-3-3-3-4-4-4-4-6-6-6-6-------|

G|---------------------------------------------------------------------------------------|
D|---------------------------------------------------------------------------------------|
A|-6-6-6-6-------------------------4-4-4-4-3-3-3-3-----------------8-8-8-8-8-8-8-8--2--5-|
E|---------3-3-3-3-4-4-4-4-6-6-6-6-----------------4-4-4-4-4-4-4-4-----------------------| 

G|-----------------------------------------------------------------|
D|-----------------------------------------------------------------|
A|-3-3-3-3-------------------------6-6-6-6-6-6-6-6-6-6-6-6-6-6-6-6-|
E|---------3-3-3-3-4-4-4-4-6-6-6-6---------------------------------|


Suggest correction
Give kudos to tab author, rate the tab!
1 2 3 4 5
comments
print report bad tab
guest
You may want to rate the tab now too:
select rating
Wanna post a correction for this tab? Suggest correction