Oops, an error
Loading. Please wait.

All I Think About Now Tab

version 1
version 1

Whole song

Interactive

781 views 78 this week
no commentswrite comment
1 2 3 4 5
x 4
add to favorites
launch autoscroll
font size
0
reset
how to read this tab
guitar tuner
Autoscroll
slow
fast
+/-
esc
set tempo
stop
Help us to improve Ultimate-Guitar.com Take our survey!
×
[Intro]

e|---------------------------------------------------------------------------|
B|-----8--------8--------8--------8--------8--------8--------8--------8------|
G|-8-8---8--7-7---7--8-8---8--7-7---7--8-8---8--7-7---7--8-8---8--7-7---7----|
D|---------------------------------------------------------------------------|
A|---------------------------------------------------------------------------|
E|---------------------------------------------------------------------------|

e|---------------------------------------------------------------------------|
B|-----8--------8--------8--------8--------8--------8--------8--------8------|
G|-8-8---8--7-7---7--8-8---8--7-7---7--8-8---8--7-7---7--8-8---8--7-7---7----|
D|---------------------------------------------------------------------------|
A|---------------------------------------------------------------------------|
E|---------------------------------------------------------------------------|

[Verse]

e|---------------------------------------------------------------------------|
B|-----8--------8--------8--------8--------8--------8--------8--------8------|
G|-8-8---8--7-7---7--8-8---8--7-7---7--8-8---8--7-7---7--6-6---6--5-5---5----|
D|---------------------------------------------------------------------------|
A|---------------------------------------------------------------------------|
E|---------------------------------------------------------------------------|

e|---------------------------------------------------------------------------|
B|---------------------------------------------------------------------------|
G|-7-8-7-8-7-8-7-8-8---------------------------------------------------------|
D|---------------------------------------------------------------------------|
A|---------------------------------------------------------------------------|
E|---------------------------------------------------------------------------|

e|--------------------------------------|
B|--------------------------------------| SECOND GUITAR
G|-4-----7------------------------------|
D|-4-----7------------------------------|
A|-2-----5------------------------------|
E|--------------------------------------|

e|-----------------------------------------------------------------------------------------------------------|
B|----8--------8--------8--------8--------8--------8--------8--------8--------8--------8---------8--------8--|
G|8-8---8--7-7---7--8-8---8--7-7---7--8-8---8--7-7---7--8-8---8--7-7---7--8-8---8--7-7---7---6-6---6--5-5---5|
D|-----------------------------------------------------------------------------------------------------------|
A|-----------------------------------------------------------------------------------------------------------|
E|-----------------------------------------------------------------------------------------------------------|

e|---------------------------------------------------------------------------|
B|---------------------------------------------------------------------------|
G|-7-8-7-8-7-8-7-8-8---------------------------------------------------------|
D|---------------------------------------------------------------------------|
A|---------------------------------------------------------------------------|
E|---------------------------------------------------------------------------|

e|--------------------------------------|
B|--------------------------------------| SECOND GUITAR
G|-4-----7------------------------------|
D|-4-----7------------------------------|
A|-2-----5------------------------------|
E|--------------------------------------|

e|---------------------------------------------------------------------------|
B|-----8--------8--------8--------8--------8--------8--------8--------8------|
G|-8-8---8--7-7---7--8-8---8--7-7---7--8-8---8--7-7---7--8-8---8--7-7---7----|
D|---------------------------------------------------------------------------|
A|---------------------------------------------------------------------------|
E|---------------------------------------------------------------------------|


e|---------------------------------------------------------------------------|
B|-----8--------8--------8--------8--------8--------8------------------------|
G|-8-8---8--7-7---7--8-8---8--7-7---7--6-6---6--5-5---5--7-8-7-8-7-8-7-8-8---|
D|---------------------------------------------------------------------------|
A|---------------------------------------------------------------------------|
E|---------------------------------------------------------------------------|

e|--------------------------------------|
B|--------------------------------------| SECOND GUITAR
G|-4-----7------------------------------|
D|-4-----7------------------------------|
A|-2-----5------------------------------|
E|--------------------------------------|

e|---------------------------------------------------------------------------|
B|-----8--------8--------8--------8--------8--------8--------8--------8------|
G|-8-8---8--7-7---7--8-8---8--7-7---7--8-8---8--7-7---7--8-8---8--7-7---7----|
D|---------------------------------------------------------------------------|
A|---------------------------------------------------------------------------|
E|---------------------------------------------------------------------------|

e|-----------------------------------------|
B|-----8--------8--------8--------8--------|
G|-8-8---8--7-7---7--8-8---8--7-7---7--8---|
D|-----------------------------------------|
A|-----------------------------------------|
E|-----------------------------------------|

e|---------------------------------------------------------------------------|
B|---------------------------------------------------------------------------|
G|-7-8-7-8-7-8-7-8-8---------------------------------------------------------|
D|---------------------------------------------------------------------------|
A|---------------------------------------------------------------------------|
E|---------------------------------------------------------------------------|

e|--------------------------------------|
B|--------------------------------------| SECOND GUITAR
G|-4-----7------------------------------|
D|-4-----7------------------------------|
A|-2-----5------------------------------|
E|--------------------------------------|


e|-----------------------------------------|
B|-----8--------8--------8--------8--------|
G|-8-8---8--7-7---7--8-8---8--7-7---7------|
D|-----------------------------------------|
A|-----------------------------------------|
E|-----------------------------------------|

e|-----------------------------------------------------|
B|-----------------------------------------------------|
G|-8-8-8-8-12-12-12-12-11-11-11-11-6-6-6-6-------------|
D|-8-8-8-8-12-12-12-12-11-11-11-11-6-6-6-6-------------|
A|-6-6-6-6-10-10-10-10-9--9--9--9--4-4-4-4-------------|
E|-----------------------------------------------------|


e|-----------------------------------------------------|
B|-----------------------------------------------------|
G|-8-8-8-8-12-12-12-12-11-11-11-11-6-6-6-6-------------|
D|-8-8-8-8-12-12-12-12-11-11-11-11-6-6-6-6-------------|
A|-6-6-6-6-10-10-10-10-9--9--9--9--4-4-4-4-------------|
E|-----------------------------------------------------|


e|-----------------------------------------------------|
B|-----------------------------------------------------|
G|-8-8-8-8-12-12-12-12-11-11-11-11-6-7-----------------|
D|-8-8-8-8-12-12-12-12-11-11-11-11-6-7-----------------|
A|-6-6-6-6-10-10-10-10-9--9--9--9--4-5-----------------|
E|-----------------------------------------------------|

e|---------------------------------------------------------|
B|-----8--------8--------8--------8--------8--------8------|
G|-8-8---8--7-7---7--8-8---8--7-7---7--6-6---6--5-5---5----|
D|---------------------------------------------------------|
A|---------------------------------------------------------|
E|---------------------------------------------------------|

e|---------------------------------------------------------------------------|
B|---------------------------------------------------------------------------|
G|-7-8-7-8-7-8-7-8-8---------------------------------------------------------|
D|---------------------------------------------------------------------------|
A|---------------------------------------------------------------------------|
E|---------------------------------------------------------------------------|

e|--------------------------------------|
B|--------------------------------------| SECOND GUITAR
G|-4-----7------------------------------|
D|-4-----7------------------------------|
A|-2-----5------------------------------|
E|--------------------------------------|

e|----------------------------------------------------------------------------------------|
B|----8--------8--------8--------8--------8--------8--------8--------8--------8--------8--|
G|8-8---8--7-7---7--8-8---8--7-7---7--8-8---8--7-7---7--8-8---8--7-7---7--6-6---6--5-5---5|
D|----------------------------------------------------------------------------------------|
A|----------------------------------------------------------------------------------------|
E|----------------------------------------------------------------------------------------|

e|---------------------------------------------------------------------------|
B|---------------------------------------------------------------------------|
G|-10-10-10-10-10-10-10-10-10-10--4--7---------------------------------------|
D|-10-10-10-10-10-10-10-10-10-10--4--7---------------------------------------|
A|-8--8--8--8--8--8--8--8--8--8---2--5---------------------------------------|
E|---------------------------------------------------------------------------|

e|---------------------------------------------------------------------------|
B|-----8--------8--------8--------8--------8--------8--------8--------8------|
G|-8-8---8--7-7---7--8-8---8--7-7---7--8-8---8--7-7---7--8-8---8--7-7---7----|
D|---------------------------------------------------------------------------|
A|---------------------------------------------------------------------------|
E|---------------------------------------------------------------------------|

e|-------------------------------------------|
B|-----8--------8--------8--------8----------|
G|-8-8---8--7-7---7--8-8---8--7-7---7--8-----|
D|-------------------------------------------|
A|-------------------------------------------|
E|-------------------------------------------|




Suggest correction
comments
print report bad tab
guest
You may want to rate the tab now too:
select rating
Wanna post a correction for this tab? Suggest correction