Oops, an error
Loading. Please wait.

All Over The World bass

version 1
version 1

Whole song

Interactive

by Pixies
3,548 views 6 this week
no commentswrite comment
1 2 3 4 5
2 more votes to show rating
add to favorites
×
Save as Personal and add changes to this tab that will be seen only by you. Learn more ›
×
You can save this tab as Personal to edit and correct it or add notes. All changes will be seen only by you. Learn more »
launch autoscroll
font size
0
reset
guitar tuner
backing track
0:00
0:00
edit
Autoscroll
slow
fast
+/-
esc
set tempo
stop
Author
Difficulty
-----------------------------------------------------------------------------
			   Pixies - All Over The World
-----------------------------------------------------------------------------

Tabbed By : Extra Blood
e-mail: Lenda@ofir.dk

Tuning: Standard

Have fun playing, and please
leave behind a comment or a
rating.

So, you play the verse a couple of times.

Verse:

    q  e e e  q  e e e q   q  e e e  q  e e e q
G-|----------------------|----------------------|
D-|*---------------------|---------------------*|
A-|*-----5-5-------5-5---|------5-5-------5-5--*|
E-|-2--5------3--5-----5-|-2--5------3--5-----5-|

Then comes the short, yet awesome, solo thing.

Play that, then back to the verse.

Short Solo Part:

   q  e h     q  e h
G|-----------------------|
D|-----------------------|
A|------5----------5-----|
E|-2--5-------3--5-------|

Then after the verse has been played for
some time, play the chorus a bit.

Chorus:

    q  e q  q  q  e q  q   q  q e  q q  q e  q
G-|----------------------|----------------------|
D-|*---------------------|---------------------*|
A-|*-----5--5-------5--5-|------5--5------5--5-*|
E-|-2--5-------3--5------|-2--5------3--5-------|

Afterwards you play this part.

"I Will Meet You..."

    q  e q  q  q  e q  q   q  e e e  q  e e e q
G-|----------------------|----------------------|
D-|----------------------|----------------------|
A-|-1--1-1--1------------|------5-5-------5-5---|
E-|------------3--3-3--3-|-2--5------3--5-----5-|

    q  e e e e e e e e e   e e w*
G-|----------------------|----------------------|
D-|----------------------|----------------------|
A-|------5-5-------------|----------------------|
E-|-2--5-----1-1-1-1-1-1-|-1-1-3----------------|

    q  e q  q  q  e q  q   q  q e  q q  q e  q
G-|----------------------|----------------------|
D-|----------------------|----------------------|
A-|------5--5-------5--5-|------5--5------5--5--|
E-|-2--5-------3--5------|-2--5------3--5-------|

    q  e q  q  q  e q  q   q  q e  q q  q e  q
G-|----------------------|----------------------|
D-|----------------------|----------------------|
A-|------5--5-------5--5-|------5--5------5--5--|
E-|-2--5-------3--5------|-2--5------3--5-------|

Then back to the verse, and repeat it all.

!!The 2nd time playing, only play to the *!!

When done repeating, move on to this
long bridge / outro thing.

Play that, and you're done.

Bridge-ish Thingy:

    w
G-|----------------------|----------------------|
D-|----------------------|----------------------|
A-|-2--------------------|---------REST---------|
E-|----------------------|----------------------|

    w                      w
G-|----------------------|----------------------|
D-|----------------------|----------------------|
A-|-3--------------------|-2--------------------|
E-|----------------------|----------------------|

    w                      w
G-|----------------------|----------------------|
D-|----------------------|----------------------|
A-|----------------------|-3--------------------|
E-|-3--------------------|----------------------|

     h     e q  e h     e   q  e h     e q  e
G-|----------------------|----------------------|
D-|*---------------------|---------------------*|
A-|*-2-----2-2--2--------|------3-----3-5--0---*|
E-|--------------3-----3-|-0--3-----------------|

    w
G-|----------------------|----------------------|
D-|----------------------|----------------------|
A-|-2--------------------|---------REST---------|
E-|----------------------|----------------------|

    q  e q  q  e e q  q    e e q  q  e e e e e
G-|----------------------|----------------------|
D-|----------------------|----------------------|
A-|-3--3-3--2--2-2-2-----|--------3--3-3-5-3-0--|
E-|-------------------3--|-3-3-3----------------|

    q  e e e e e q  e e    e e e q  e e e e e q
G-|----------------------|----------------------|
D-|----------------------|----------------------|
A-|-2--2-2-2---2---------|-------3--3-3-5-3-0-2-|
E-|----------3---3--3-3--|-0-3-0----------------|

    e e e e e q   e e e    e e q  e e e e e e e
G-|----------------------|----------------------|
D-|----------------------|----------------------|
A-|-2-2-0----------------|-----3--3-3-5-3-0-2-2-|
E-|-------3-0-3---3-3-0--|-3-0------------------|

    e e e e e e e e e e    e e e e e e e e e e
G-|----------------------|----------------------|
D-|----------------------|----------------------|
A-|-2-2-2-2-2-2----------|-------------3-3-3-3--|
E-|-------------3-3-3-3--|-3-3-3-3-3-3----------|

    e e e e e e e e e e    e e e e e e e e e e
G-|----------------------|----------------------|
D-|----------------------|----------------------|
A-|-3-3-3-3-2-2-2-2-2-2--|-2-2------------------|
E-|----------------------|-----3-3-3-3-3-3-3-3--|

    e e e e e e e e q  e   e e e e q  e e e e e
G-|----------------------|----------------------|
D-|----------------------|----------------------|
A-|-3-3-3-3-3-3-3-3-2--2-|-2-2---2--------------|
E-|----------------------|-----3---3--3-3-0-3-0-|

    q  e e e e e q  e e    e e e q  e e e e e q
G-|----------------------|----------------------|
D-|----------------------|----------------------|
A-|-3--3-3-5-3-0-2--2-2--|-0------------------3-|
E-|----------------------|---3-0-3--3-3-0-3-0---|

    e e e e e e e e e e    e e e e e e e e e e
G-|----------------------|----------------------|
D-|----------------------|----------------------|
A-|-3-3-5-3-0---------5--|-5-------------5-5----|
E-|-----------2-2-5-5----|---5-5-3-3-5-5-----5--|

    e e e e e e e e e e    e e e e e e e w
G-|----------------------|----------------------|
D-|----------------------|----------------------|
A-|-----------5-5--------|-------5-5------------|
E-|-5-2-2-5-5-----5-5-3--|-3-5-5-----5-5-2------|

G-|----------------------|----------------------|
D-|----------------------|----------------------|
A-|---------REST---------|---------REST---------|
E-|----------------------|----------------------|

| w Whole Note
| h Half Note
| q Quarter Note
| e 8th Note
=============================================================================
Suggest correction
Creating personal tab
Creating personal tab
You can edit any tab online and save it as your Personal.

You can edit, replace or remove any tab part or add personal notes – all changes will be seen only by you.

Personal tabs can be accessed anytime from any device, even offline.
Learn more »
Give kudos to tab author, rate the tab!
1 2 3 4 5
comments
print report bad tab
guest
You may want to rate the tab now too:
select rating
Wanna post a correction for this tab? Suggest correction