Oops, an error
Loading. Please wait.

Bone Machine bass

version 3
version 3

Whole song

Interactive

by Pixies
7,193 views 6 this week
no commentswrite comment
1 2 3 4 5
x 6
add to favorites
×
Save as Personal and add changes to this tab that will be seen only by you. Learn more ›
×
You can save this tab as Personal to edit and correct it or add notes. All changes will be seen only by you. Learn more »
launch autoscroll
font size
0
reset
guitar tuner
backing track
0:00
0:00
edit
Autoscroll
slow
fast
+/-
esc
set tempo
stop
Author
Difficulty
Artist: Pixies
Song: Bone Machine
Album: Surfer Rosa
Bassist: Kim Deal

This is my interpritation of the bass line-

*=mute
/=slide up

Beginning

G-----------------------------------------------|
D-----------------------------------------------|      (PART 1)
A-5-5-5-*---------------------------------------|
E---------5-5-5-5/8-8-8-*-3-3-3-*---------------|

When the guitar part starts it goes like this-

G-----------------------------------------------|
D-----------------------------------------------|      (PART 2)
A-5-5-5-5---------3-3-3-3-----------------------|
E---------5-5-5-5---------3-3-3-3---------------|

play that until "Your bones got a little machine"-

G-----------------------------------------------|
D-2---------------------------------------------|      (PART 3)
A---------3-------------------------------------|
E-----------------1-------3---------------------|

"you're the bone machine"-

G-----------------------------------------------|
D-2-2-2-2---------------------------------------|      (PART 4)
A---------3-3-3-3-------------------------------|
E-----------------1-1-1-1-3-3-3-3---------------|

I don't know the names for each part of the song so broke it up into parts. This
is the order they go in-

PART 1   X2
PART 2   X12
PART 3   X1
PART 2   X2
PART 4   X1
PART 2   X10
PART 3   X1
PART 2   X2
PART 3   X1
PART 2   X8
PART 3   X1

I hope this helped. I saw the other tabs and they didn't look right (I don't know
how they got five stars). Please rate.

            
            
Suggest correction
Creating personal tab
Creating personal tab
You can edit any tab online and save it as your Personal.

You can edit, replace or remove any tab part or add personal notes – all changes will be seen only by you.

Personal tabs can be accessed anytime from any device, even offline.
Learn more »
comments
print report bad tab
guest
You may want to rate the tab now too:
select rating
Wanna post a correction for this tab? Suggest correction