Oops, an error
Loading. Please wait.

Bone Machine tab

version 3
version 3

Whole song

Interactive

by Pixies
34,899 views 75 this week
1 commentread comment
1 2 3 4 5
x 17
add to favorites
×
Save as Personal and add changes to this tab that will be seen only by you. Learn more ›
×
You can save this tab as Personal to edit and correct it or add notes. All changes will be seen only by you. Learn more »
launch autoscroll
font size
0
reset
how to read this tab
guitar tuner
backing track
0:00
0:00
edit
Autoscroll
slow
fast
+/-
esc
set tempo
stop
Author
[Main bass part]
G|-----------------|-----------------|
D|-----------------|-----------------|
A|-5-5-5-5---------|-3-3-3-3---------|
E|---------5-5-5-5-|---------3-3-3-3-|

[Frank Black's part]
E|-----------------|---------------------|
B|-6-6-6-6---------|---------------------|
G|-7-7-7-7-6-6-6-6-|--9--9--9--9-4-4-4-4-|
D|-7-7-7-7-7-7-7-7-|-10-10-10-10-5-5-5-5-|
A|-5-5-5-5-7-7-7-7-|-10-10-10-10-5-5-5-5-|
E|---------5-5-5-5-|--8--8--8--8-3-3-3-3-|

[Santiago Part]
(^ for bend half-step & release)
E|-5-5-5-5---------|-3-3-3-3---------|
B|-6-6-6-6-------0-|-3-3-3-3-------0-|
G|---------7^--5---|---------6^--4---|
D|-----------------|-----------------|
A|-----------------|-----------------|
E|-----------------|-----------------|

E|-5-5-5-5---------|-3-3-3-3---------|
B|-5-5-5-5-------0-|-3-3-3-3-------0-|
G|---------7^--5---|---------6^--4---|
D|-----------------|-----------------|
A|-----------------|-----------------|
E|-----------------|-----------------|

 "your bones..." bass only
G|---------------------|-----------------|
D|---------------------|-----------------|
A|---------------------|-----------------|
E|-12----------8-------|-1-------3-------|

"your bones..." whole band
E|---------------------|-----------------|----|
B|---------------------|-----------------|----|
G|-------------5-5-5-5-|---------4---4---|-4--|
D|-2--2--2--2--5-5-5-5-|-3-3-3-3-5---5---|-5--|
A|-2--2--2--2--3-3-3-3-|-3-3-3-3-5---5---|-5--|
E|-0--0--0--0----------|-1-1-1-1-3---3---|-3--|
 
G|---------------------|-----------------|----|
D|---------------------|-----------------|----|
A|---------------------|-----------------|----|
E|-12-12-12-12-8-8-8-8-|-1-1-1-1-3---3---|-3--|

[Santiago solo]
(play tremolo by 16ths for 6 bars)
E|-10--------------|--|--|--|--|--|
B|-10--------------|--|--|--|--|--|
G|-10--------------|--|--|--|--|--|
D|-----------------|--|--|--|--|--|
A|-----------------|--|--|--|--|--|
E|-----------------|--|--|--|--|--|

E|-9-9-9-8-8-8-7-7-7-6-6-6-5-5-5|-4-4-4-3-------------|
B|-9-9-9-8-8-8-7-7-7-6-6-6-5-5-5|-4-4-4-3-------------|
G|-9-9-9-8-8-8-7-7-7-6-6-6-5-5-5|-4-4-4-3-------------|
D|------------------------------|---------------------|
A|------------------------------|---------------------|
E|------------------------------|---------------------|

            
            
Suggest correction
Creating personal tab
Creating personal tab
You can edit any tab online and save it as your Personal.

You can edit, replace or remove any tab part or add personal notes – all changes will be seen only by you.

Personal tabs can be accessed anytime from any device, even offline.
Learn more »
comments
print report bad tab
1 comment total.
+2 reply
Arthur_Jayz-G! 289 Feb 06, 2008 12:06 PM

Best tab ive seen for this song. Nicely done

guest
You may want to rate the tab now too:
select rating
Wanna post a correction for this tab? Suggest correction