Oops, an error
Loading. Please wait.

Brick Is Red bass

version 1
version 1

Whole song

Interactive

by Pixies
1,418 views 3 this week
no commentswrite comment
1 2 3 4 5
2 more votes to show rating
add to favorites
×
Save as Personal and add changes to this tab that will be seen only by you. Learn more ›
×
You can save this tab as Personal to edit and correct it or add notes. All changes will be seen only by you. Learn more »
launch autoscroll
font size
0
reset
guitar tuner
backing track
0:00
0:00
edit
Autoscroll
slow
fast
+/-
esc
set tempo
stop
Author
Difficulty
-----------------------------------------------------------------------------
			   Pixies - Brick Is Red
-----------------------------------------------------------------------------

Tabbed By : Extra Blood
e-mail: Lenda@ofir.dk

Tuning: Standard

Listen to song to get the rythm.

Have fun playing, and please leave
behind a comment or a rating.

Intro:

                      q    e q  e e
G-|-----------------|-----------------|-----------------|
D-|*----------------|----------------*|-----------------|
A-|*-----REST-------|--------0-------*|------REST-------|
E-|-----------------|-0-x--3----3-0---|-----------------|

    q    q  e e e                       q    e q  e e
G-|-----------------|-----------------|-----------------|
D-|-----------------|-----------------|-----------------|
A-|------3--5-3-----|------REST-------|--------0--------|
E-|-5-x---------5---|-----------------|-0-x--3----3-0---|


G-|-----------------|-----------------|-----------------|
D-|-----------------|-----------------|-----------------|
A-|------REST-------|-----------------|-----------------|
E-|-----------------|-3-3-3-3-3-3-3-3-|-5-5-5-5-5-5-5-0-|


Short Pause


Verse:

    q    e e   q  q     e e   q  q      e e   q  q   e e   q
G-|-----------------|-----------------|-----------------------|
D-|*----------------|-----------------|----------------------*|
A-|*-------0-x------|-----0-x------x--|-2-3-x-2----x-2-3-x-2-*|
E-|-0-x--3-----3--0-|-x-3-----3--3----|----------3------------|

Pre-Chorus:

    e    e e   e      e    e e   e      e    e e   e      e e e e e e e e
G-|-----------------|-----------------|-----------------|-----------------|
D-|-----------------|-----------------|-----------------|-----------------|
A-|-2-x--2-2-x------|-3-x--3-3-x------|------------7-x--|-3-3-3-3-3-3-3-3-|
E-|------------2-x--|------------3-x--|-5-x--5-5-x------|-----------------|

Chorus:

    e                 e e e e e e e e   e e e e e e e e
G-|-----------------|-----------------|-----------------|
D-|-----------------|-----------------|-----------------|
A-|------REST-------|-----------------|-3-3-3-3-3-3-3-3-|
E-|-0---------------|-3-3-3-3-5-5-5-5-|-----------------|

    e e e e e e e e                     e e e e e e e e
G-|-----------------|-----------------|-----------------|
D-|-----------------|-----------------|-----------------|
A-|-----------------|------REST-------|-----------------|
E-|-3-3-3-3-5-5-5-0-|-----------------|-3-3-3-3-5-5-5-5-|

    e e e e e e e e   e e e e e e e e
G-|-----------------|-----------------|-----------------|
D-|-----------------|-----------------|-----------------|
A-|-3-3-3-3-3-3-3-3-|-----------------|------REST-------|
E-|-----------------|-3-3-3-3-5-5-5-0-|-----------------|

Now re-play the verse,pre-chorus and chorus.

Afterwards, play this.

    q    e q   e
G-|-----------------|
D-|-----------------|
A-|--------0-x------|
E-|-0-x--3-----0----|

And you're done.

| q  Quarter Note
| e  8th Note
| x  Mute Note
=============================================================================

            
            
Suggest correction
Creating personal tab
Creating personal tab
You can edit any tab online and save it as your Personal.

You can edit, replace or remove any tab part or add personal notes – all changes will be seen only by you.

Personal tabs can be accessed anytime from any device, even offline.
Learn more »
Give kudos to tab author, rate the tab!
1 2 3 4 5
comments
print report bad tab
guest
You may want to rate the tab now too:
select rating
Wanna post a correction for this tab? Suggest correction