Oops, an error
Loading. Please wait.

Classic Masher Bass Tab

43 views 3 this week
no commentswrite comment
1 2 3 4 5
3 more votes to show rating
add to favorites
launch autoscroll
font size
0
reset
guitar tuner
Autoscroll
slow
fast
+/-
esc
set tempo
stop
Help us to improve Ultimate-Guitar.com Take our survey!
×
[Intro]

G|---------------------------------------------------------------------------------------|
D|---------------------------------------------------------------------------------------|
A|--5-----------------------2----------------------5------------------------2------------|
E|--------------2----------------------5-----------------------2-----------------------5-|

[Verse]

G|---------------------------------------------------------------------------------------|
D|---------------------------------------------------------------------------------------|
A|--5-----------------------2----------------------5------------------------2------------|
E|--------------2----------------------5-----------------------2-----------------------5-|

G|------------------------------------------------------------------------------------------|
D|------------------------------------------------------------------------------------------|
A|--5---------------------------5-5-5-5-----------------------------------------------------|
E|--------------5-5-5-5-5-5-5-5---------3-3-3-3-3-3-3-3-3-3-3-3-3-3-3-3-3-3-3-3-5-5-5-5-5-5-|

[Chorus]

G|-------------------------------------------------------------------------------------------|
D|-------------------------------------------------------------------------------------------|
A|-5-5-5-5-5-5-5-5-5-5-5-5-5-5-5-5-----------------------------------------------------------|
E|---------------------------------3-3-3-3-3-3-3-3-3-3-3-3-3-3-3-3-3-3-3-3-3-3-5-5-5-5-5-5---|

[Verse]

G|---------------------------------------------------------------------------|
D|---------------------------------------------------------------------------|
A|-5-5-5-5-5-5-5-5-5-------------------2-2-2-2-2-2-2-2-2---------------------|
E|-------------------2-2-2-2-2-2-2-2-2-------------------5-5-5-5-5-5-5-5-5---|

G|---------------------------------------------------------------------------|
D|---------------------------------------------------------------------------|
A|-5-5-5-5-5-5-5-5-5-------------------2-2-2-2-2-2-2-2-2---------------------|
E|-------------------2-2-2-2-2-2-2-2-2-------------------5-5-5-5-5-5-5-5-5---|

G|---------------------------------------------------------------------------|
D|---------------------------------------------------------------------------|
A|-5-5-5-5-5-5-5-5-5-------------------2-2-2-2-2-2-2-2-2---------------------|
E|-------------------2-2-2-2-2-2-2-2-2-------------------5-5-5-5-5-5-5-5-5---|

G|------------------------------------------------------------------------------------------|
D|------------------------------------------------------------------------------------------|
A|--5-5-5-5-5-5-----------------5-5-5-5-----------------------------------------------------|
E|--------------5-5-5-5-5-5-5-5---------3-3-3-3-3-3-3-3-3-3-3-3-3-3-3-3-3-3-3-3-5-5-5-5-5-5-|

[Chorus]

G|-------------------------------------------------------------------------------------------|
D|-------------------------------------------------------------------------------------------|
A|-5-5-5-5-5-5-5-5-5-5-5-5-5-5-5-5---------------------------------------------------------5-|
E|---------------------------------3-3-3-3-3-3-3-3-3-3-3-3-3-3-3-3-3-3-3-3-3-3-5-5-5-5-5-5---|

G|---------------------------------------------------------------------------|
D|---------------------------------------------------------------------------|
A|---------------------------------------------------------------------------|
E|-3-3-3-3-3-3-3-3-3-3-3-3-3-3-3-3-3-3-3-3-3-3-3-3-3-5-5-5-5-----------------|

[Outro]

G|---------------------------------------------------------------------------|
D|---------------------------------------------------------------------------|
A|-5-5-5-5-5-5-5-5-5-------------------2-2-2-2-2-2-2-2-2---------------------|
E|-------------------2-2-2-2-2-2-2-2-2-------------------5-5-5-5-5-5-5-5-5---|


G|---------------------------------------------------------------------------|
D|---------------------------------------------------------------------------|
A|-5-5-5-5-5-5-5-5-5-------------------2-2-2-2-2-2-2-2-2---------------------|
E|-------------------2-2-2-2-2-2-2-2-2-------------------5-5-5-5-5-5-5-5-5---|


G|---------------------------------------------------------------------------|
D|---------------------------------------------------------------------------|
A|-5-5-5-5-5-5-5-5-5-------------------2-2-2-2-2-2-2-2-2---------------------|
E|-------------------2-2-2-2-2-2-2-2-2-------------------5-5-5-5-5-5-5-5-5---|


G|---------------------------------------------------------------------------|
D|---------------------------------------------------------------------------|
A|-5-5-5-5-5-5-5-5-5-------------------2-2-2-2-2-2-2-2-2---------------------|
E|-------------------2-2-2-2-2-2-2-2-2-------------------5-5-5-5-5-5-5-5-5---|

G|---------------------------------------------------------------------------|
D|---------------------------------------------------------------------------|
A|-5-----------------------------------------------------------------5-------|
E|---2-2-2-2-2-2-2-2-2-2-2-2-2-2-2-2-2-2-2-2-2-2-2-2-2-2-2-2-2-2-2-2---------|

Suggest correction
Give kudos to tab author, rate the tab!
1 2 3 4 5
comments
print report bad tab
guest
You may want to rate the tab now too:
select rating
Wanna post a correction for this tab? Suggest correction