Oops, an error
Loading. Please wait.

Classic Masher Tab

232 views 27 this week
no commentswrite comment
1 2 3 4 5
1 last vote to show rating
add to favorites
launch autoscroll
font size
0
reset
how to read this tab
guitar tuner
Autoscroll
slow
fast
+/-
esc
set tempo
stop
Help us to improve Ultimate-Guitar.com Take our survey!
×
[Intro]

Guitar 1
e|-------------------------------------|
B|-------------------------------------| 
G|--7---------------4------------------|
D|--7-------4-------4------7-----------|
A|--5-------4-------2------7-----------|
E|----------2--------------5-----------|

Guitar 2
e|-------------------------------------------|
B|-----------------------------7--5----------| 
G|--7-6-7----7-6-7----7-6-7---------7--------|
D|-------------------------------------------|
A|-------------------------------------------|
E|-------------------------------------------|


[Verse 1]

e|-------------------------------------|
B|-------------------------------------| 
G|--7---------------4------------------|
D|--7-------4-------4------7-----------|
A|--5-------4-------2------7-----------|
E|----------2--------------5-----------|

e|-------------------------------------|
B|-------------------------------------| 
G|--7---------------4------------------|
D|--7-------4-------4------7-----------|
A|--5-------4-------2------7-----------|
E|----------2--------------5-----------|


[Verse 2]

e|---------------------------------------------------------------------------------------------------|
B|---------------------------------------------------------------------------------------------------|
G|--7----------------------------7-7-7-7-------------------------------------------------------------|
D|--7-------------7-7-7-7-7-7-7--7-7-7-7--5-5-5-5-5-5-5-5-5-5-5-5-5-5-5-5-5-5-7-7-7-7-7-7-7----------|
A|--5-------------7-7-7-7-7-7-7--5-5-5-5--5-5-5-5-5-5-5-5-5-5-5-5-5-5-5-5-5-5-7-7-7-7-7-7-7----------|
E|----------------5-5-5-5-5-5-5-----------3-3-3-3-3-3-3-3-3-3-3-3-3-3-3-3-3-3-5-5-5-5-5-5-5----------|


[Chorus]

Guitar 1
e|------------------------------------------------------------------------------|
B|------------------------------------------------------------------------------|
G|-7-7-7-7-7-7-7-7-7-7-7-7-7-7--------------------------------------------------| 
D|-7-7-7-7-7-7-7-7-7-7-7-7-7-7-5-5-5-5-5-5-5-5-5-5-5-5-5-7-7-7-7-7-7-7-7-7-7----|
A|-5-5-5-5-5-5-5-5-5-5-5-5-5-5-5-5-5-5-5-5-5-5-5-5-5-5-5-7-7-7-7-7-7-7-7-7-7----|
E|-----------------------------3-3-3-3-3-3-3-3-3-3-3-3-3-5-5-5-5-5-5-5-5-5-5----|

Guitar 2
e|-----------------------------------------|
B|-----------------------------------------|
G|-7-7-7-7-7-7-7-7-7-7-7-7-7-7-7-7-7-7-7-7-| 
D|-----------------------------------------|
A|-----------------------------------------|
E|-----------------------------------------|


[Post-Chorus]

e|---------------------------------------------------------|
B|----7-7-------7-7-----7-7--5/---3--2---------------------|
G|--9---------9-------9------------------------------------|
D|---------------------------------------------------------|
A|---------------------------------------------------------|
E|---------------------------------------------------------|


[Verse]

e|---------------------------------------------------------------------------|
B|---------------------------------------------------------------------------|
G|-7-7-7-7-7-7-7-7-7-------------------4-4-4-4-4-4-4-4-4---------------------|
D|-7-7-7-7-7-7-7-7-7-4-4-4-4-4-4-4-4-4-4-4-4-4-4-4-4-4-4-7-7-7-7-7-7-7-7-7---|
A|-5-5-5-5-5-5-5-5-5-4-4-4-4-4-4-4-4-4-2-2-2-2-2-2-2-2-2-7-7-7-7-7-7-7-7-7---|
E|-------------------2-2-2-2-2-2-2-2-2-------------------5-5-5-5-5-5-5-5-5---|

e|---------------------------------------------------------------------------|
B|---------------------------------------------------------------------------|
G|-7-7-7-7-7-7-7-7-7-------------------4-4-4-4-4-4-4-4-4---------------------|
D|-7-7-7-7-7-7-7-7-7-4-4-4-4-4-4-4-4-4-4-4-4-4-4-4-4-4-4-7-7-7-7-7-7-7-7-7---|
A|-5-5-5-5-5-5-5-5-5-4-4-4-4-4-4-4-4-4-2-2-2-2-2-2-2-2-2-7-7-7-7-7-7-7-7-7---|
E|-------------------2-2-2-2-2-2-2-2-2-------------------5-5-5-5-5-5-5-5-5---|


[Verse 2]

e|---------------------------------------------------------------------------------------------------|
B|---------------------------------------------------------------------------------------------------|
G|--7-7-7-7-7-7-7----------------7-7-7-7-------------------------------------------------------------|
D|--7-7-7-7-7-7-7-7-7-7-7-7-7-7--7-7-7-7--5-5-5-5-5-5-5-5-5-5-5-5-5-5-5-5-5-5-7-7-7-7-7-7-7----------|
A|--5-5-5-5-5-5-5-7-7-7-7-7-7-7--5-5-5-5--5-5-5-5-5-5-5-5-5-5-5-5-5-5-5-5-5-5-7-7-7-7-7-7-7----------|
E|----------------5-5-5-5-5-5-5-----------3-3-3-3-3-3-3-3-3-3-3-3-3-3-3-3-3-3-5-5-5-5-5-5-5----------|


[Chorus]

Guitar 1
e|------------------------------------------------------------------------------|
B|------------------------------------------------------------------------------|
G|-7-7-7-7-7-7-7-7-7-7-7-7-7-7-----------------------------------------------7--| 
D|-7-7-7-7-7-7-7-7-7-7-7-7-7-7-5-5-5-5-5-5-5-5-5-5-5-5-5-7-7-7-7-7-7-7-7-7-7-7--|
A|-5-5-5-5-5-5-5-5-5-5-5-5-5-5-5-5-5-5-5-5-5-5-5-5-5-5-5-7-7-7-7-7-7-7-7-7-7-5--|
E|-----------------------------3-3-3-3-3-3-3-3-3-3-3-3-3-5-5-5-5-5-5-5-5-5-5----|

Guitar 2
e|-----------------------------------------|
B|-----------------------------------------|
G|-7-7-7-7-7-7-7-7-7-7-7-7-7-7-7-7-7-7-7-7-| 
D|-----------------------------------------|
A|-----------------------------------------|
E|-----------------------------------------|


[Outro]

e|---------------------------------------------------------------------------|
B|---------------------------------------------------------------------------|
G|---------------------------------------------------------------------------|
D|-5-5-5-5-5-5-5-5-5-5-5-5-5-5-5-7-7-7-7-7-7-7-7-7---------------------------|
A|-5-5-5-5-5-5-5-5-5-5-5-5-5-5-5-7-7-7-7-7-7-7-7-7---------------------------|
E|-3-3-3-3-3-3-3-3-3-3-3-3-3-3-3-5-5-5-5-5-5-5-5-5---------------------------|

e|-----------------------------------------|
B|-----------------------------------------|
G|-7-7-7-7-7-7-7-7-7-7-7-7-7-7-7-7-7-7-7-7-|
D|-----------------------------------------|
A|-----------------------------------------|
E|-----------------------------------------|

e|---------------------------------------------------------|
B|----7-7-------7-7-----7-7--5/----3--2--------------------|
G|--9---------9-------9------------------------------------|
D|---------------------------------------------------------|
A|---------------------------------------------------------|
E|---------------------------------------------------------|

e|---------------------------------------------------------|
B|----7-7-------7-7-----7-7--5/----3--2--------------------|
G|--9---------9-------9------------------------------------|
D|---------------------------------------------------------|
A|---------------------------------------------------------|
E|---------------------------------------------------------|

e|---------------------------------------------------------|
B|----7-7-------7-7-----7-7--5/----3--2--------------------|
G|--9---------9-------9------------------------------------|
D|---------------------------------------------------------|
A|---------------------------------------------------------|
E|---------------------------------------------------------|

e|---------------------------------------------|
B|---------------------------------------7-5---| 
G|-7-6-7-6-7-6-7-6-7-6-7-6-7-6-7-6-7-6-7-----7-|
D|---------------------------------------------|
A|---------------------------------------------|
E|---------------------------------------------|


************************************

| /  Slide up

************************************
Suggest correction
Give kudos to tab author, rate the tab!
1 2 3 4 5
comments
print report bad tab
guest
You may want to rate the tab now too:
select rating
Wanna post a correction for this tab? Suggest correction