Oops, an error
Loading. Please wait.

Come On Pilgrim album bass

by Pixies
3,625 views 1 this week
no commentswrite comment
1 2 3 4 5
2 more votes to show rating
add to favorites
×
Save as Personal and add changes to this tab that will be seen only by you. Learn more ›
×
You can save this tab as Personal to edit and correct it or add notes. All changes will be seen only by you. Learn more »
launch autoscroll
font size
0
reset
guitar tuner
edit
Autoscroll
slow
fast
+/-
esc
set tempo
stop
The Pixies - Come On Pilgrim - 1987

Tracklist -

1. Caribou
2. Vamos
3. Isla de Encanta
4. Ed Is Dead
5. Holiday Song
6. Nimrod's Son
7. I've Been Tired
8. Levitate Me


-----------------------------------------------------------------------------
			     Pixies - Caribou
-----------------------------------------------------------------------------

Tabbed By : Extra Blood

Tuning: Standard

Very easy song. Have fun playing,
and please leave behind a comment
or a rating.

Bass enters at 00:38

Verse:

G-|----------|----------|----------|-----------|
D-|*---------|----------|----------|----------*|
A-|*---------|-3--3-3-3-|----------|-3--3-3-3-*|
E-|-3--3-3-3-|----------|-3--3-3-3-|-----------|


Chorus:

G-|----------|----------|----------|-----------|
D-|*---------|----------|----------|----------*|
A-|*---------|-3--3-3-3-|----------|-3--3-3-3-*|
E-|-3--3-3-3-|----------|-3--3-3-3-|-----------|

G-|------------|------------|------------|-------------|
D-|*-----------|------------|------------|------------*|
A-|*-----------|-6--6-6-6-6-|------------|------------*|
E-|-3--3-3-3-3-|------------|-6--6-6-6-6-|-7-7-7-9-9-9-|

-Verse

2nd Chorus:


G-|-----------|-----------|-----------|------------|
D-|*----------|-----------|-----------|-----------*|
A-|*----------|-3-----3-3-|-----------|-3-----3-3-*|
E-|-3-----3-3-|-----------|-3-----3-3-|------------|

G-|------------|------------|------------|-------------|
D-|*-----------|------------|------------|------------*|
A-|*-----------|-6--6-6-6-6-|------------|------------*|
E-|-3--3-3-3-3-|------------|-6--6-6-6-6-|-7-7-7-9-9-9-|


Outro:

G-|------------|------------|------------|-------------|
D-|*-----------|------------|------------|------------*|
A-|*-----------|-6--6-6-6-6-|------------|------------*|
E-|-3--3-3-3-3-|------------|-6--6-6-6-6-|-7-7-7-9-9-9-|

G-|-------------|-------------|-------------|
D-|-------------|-------------|-------------|
A-|-6-----------|-------6-----|-------------|
E-|-------7-7-7-|-9-9-9-------|-7-7-7-9-9-9-|

G-|-------------|-------------|-------------|
D-|-------------|-------------|-------------|
A-|-------------|-------------|-------------|
E-|-3-----------|-------------|-------------|
    ^Let Ring

-----------------------------------------------------------------------------
			     Pixies - Vamos
-----------------------------------------------------------------------------

Tabbed By : Extra Blood

Tuning:Standard

You should be abel to tell
when the bass enters.

Riff 1 / Intro & Verse
G-|-------------|-------------|
D-|-------------|-------------|
A-|-------------|-------------|
E-|-0-0-0-0-3-3-|-0-0-0-0-3-3-|

Riff 1 variation is played a few
times after the solo ends, and before
the 3rd verse begins.

Riff 1 Variation
G-|-------------|-------------|-------------|-------------|
D-|-------------|-------------|-------------|-------------|
A-|-------------|-------------|-------------|-------------|
E-|-0-0-0-0-3-3-|-0-0-0-0-0-0-|-3-3-0-0-3-3-|-0-0-0-0-3-3-|

Riff 2 "That maid Maria..."
G-|-------------|-------------|-----------------|------------------|
D-|-------------|-------------|-----------------|*----------------*|
A-|-2-----------|-------------|---------0-0-2-2-|*--------0-0-2-2-*|
E-|-------------|-3-----------|-0-0-3-3---------|-0-0-3-3----------|

Riff 3 / Outro
G-|-------------|-------------|-----------------|------------------|
D-|-------------|-------------|-----------------|------------------|
A-|-2-----------|-------------|---------0-0-2-2-|---------0-0-2-2--|
E-|-------------|-3-----------|-0-0-3-3---------|-0-0-3-3----------|

G-|-----------------|-----------------|-----------------|----------|
D-|-----------------|-----------------|-----------------|----------|
A-|---------0-0-2-2-|---------0-0-2-2-|-----------------|----------|
E-|-0-0-3-3---------|-0-0-3-3---------|-0-0-3-3-0-0-0-3-|----------|

-----------------------------------------------------------------------------
			     Pixies - Isla De Encanta
-----------------------------------------------------------------------------

Tabbed By : Extra Blood

Tuning: Standard

Riff 1 / Verse
G-|----------------|---|
D-|*--------------*|---|
A-|*-2-22-2-1-0-3-*|-2-|
E-|----------------|---|

Riff 2 / Chorus
G-|-------------------|----------------------|
D-|-------------------|----------------------|
A-|-2-2-----2-2-2-----|-2-2----2-2-2-----2/--|
E-|-----0-0-------0-0-|-----0--------0-0-----|

Riff 3 / Interlude
G-|----------------|------------------|-----|
D-|----------------|*----------------*|-----|
A-|----------------|*----------------*|-----|
E-|-3-3-5--3-3-3-5-|-3-3-3-5--3-3-3-5-|-3-5-|

-----------------------------------------------------------------------------
			     Pixies - Ed Is Dead
-----------------------------------------------------------------------------

Tabbed By : Extra Blood
e-mail: Lenda@ofir.dk

Tuning: Standard

Intro & 1st Verse:

G-|-----------------|-----------------|-----------------|-----------------|
D-|-----------------|-----------------|-----------------|-----------------|
A-|------REST-------|------REST-------|-----------------|-----------------|
E-|-----------------|-----------------|-5-5-5-5-5-5-5-5-|-1-1-1-1-7-7-7-7-|

G-|-----------------|-----------------|-----------------|-----------------|
D-|*----------------|-----------------|-----------------|----------------*|
A-|*----------------|-----------3-3-3-|-----------------|---------2-2-2-2*|
E-|-3-3-x-3-3-3-x-3-|-3-3-x-3-3-------|-5-5-5-5-5-5-5-5-|-1-1-1-1---------|

Chorus:

G-|-----------------|-----------------|-----------------|-----------------|
D-|-----------------|-----------------|-----------------|-----------------|
A-|------REST-------|---REST--x-3-3-3-|-----------------|---------2-2-2-2-|
E-|-----------------|-----------------|-5-5-5-5-5-5-5-5-|-1-1-1-1---------|

G-|-----------------|-----------------|-----------------|-----------------|
D-|-----------------|-----------------|-----------------|-----------------|
A-|-----------------|-----------3-3-3-|-----------------|---------2-2-2-2-|
E-|-3-3-x-3-3-3-x-3-|-3-3-x-3-3-------|-5-5-5-5-5-5-5-5-|-1-1-1-1---------|

Interlude:

G-|-----------------|-----------------|-----------------|-----------------|
D-|-----------------|-----------------|-----------------|-----------------|
A-|-----------------|-----------3-3-3-|-----------------|-----------------|
E-|-3-3-x-3-3-3-x-3-|-3-3-x-3-3-------|-5-5-5-5-5-5-5-5-|-1-1-1-1-7-7-7-7-|

G-|-----------------|-----------------|-----------------|-----------------|
D-|-----------------|-----------------|-----------------|-----------------|
A-|-----------------|-----------3-3-3-|-----------------|---------2-2-2-2-|
E-|-3-3-x-3-3-3-x-3-|-3-3-x-3-3-------|-5-5-5-5-5-5-5-5-|-1-1-1-1---------|

2nd Verse

G-|-----------------|-----------------|-----------------|-----------------|
D-|*----------------|-----------------|-----------------|----------------*|
A-|*----------------|-----------3-3-3-|-----------------|---------2-2-2-2*|
E-|-3-3-x-3-3-3-x-3-|-3-3-x-3-3-------|-5-5-5-5-5-5-5-5-|-1-1-1-1---------|

-Chorus
-Interlude

Breakdown:

G-|-----------------|-----------------|-----------------|-----------------|
D-|*----------------|-----------------|-----------------|----------------*|
A-|*-----REST-------|------REST-------|------REST-------|------REST------*|
E-|-----------------|-----------------|-----------------|-----------------|

Outro:

G-|-----------------|-----------------|-----------------|-----------------|
D-|-----------------|-----------------|-----------------|-----------------|
A-|-----------------|-----------3-3-3-|-----------------|---------2-2-2-2-|
E-|-3-3-x-3-3-3-x-3-|-3-3-x-3-3-------|-5-5-5-5-5-5-5-5-|-1-1-1-1---------|

G-|-----------------|-----------------|-----------------|-----------------|
D-|-----------------|-----------------|-----------------|-----------------|
A-|-----------------|-----------3-3-3-|-----------------|-----------------|
E-|-3-3-x-3-3-3-x-3-|-3-3-x-3-3-------|-5-5-5-5-5-5-5-5-|-1-1-1-1-7-7-7-7-|

G-|-----------------|-----------------|-----------------|-----------------|
D-|-----------------|-----------------|-----------------|-----------------|
A-|-----------------|-----------3-3-3-|-----------------|---------2-2-2-2-|
E-|-3-3-x-3-3-3-x-3-|-3-3-x-3-3-------|-5-5-5-5-5-5-5-5-|-1-1-1-1---------|

G-|-----------------|-----------------|-----------------|-----------------|
D-|-----------------|-----------------|-----------------|-----------------|
A-|-----------------|-----------------|------REST-------|------REST-------|
E-|-3---------------|-----------------|-----------------|-----------------|
    ^Let Ring

-----------------------------------------------------------------------------
			     Pixies - Holiday Song
-----------------------------------------------------------------------------

Tabbed By : Extra Blood

Tuning:Standard


Intro:

G-|-----------------|-----------------|----------------|-----------------|
D-|-----------------|-----------------|*---------------|----------------*|
A-|------REST-------|------REST-------|*0-0-0-3--3-3-3-|-------3--3-3-3-*|
E-|-----------------|-----------------|----------------|-1-1-1-----------|

Verse 1:

G-|-----------------|----------------|-----------------|-----------------|
D-|*----------------|---------------*|-----------------|-----------------|
A-|*-0-0-0-3--3-3-3-|-------3--3-3-3*|-0-0-0-0---------|-3-3-3-3---------|
E-|-----------------|-1-1-1----------|---------1-1-1-1-|---------1-1-1-1-|

Chorus:

G-|-----------------|----------------|-----------------|-----------------|
D-|-----------------|----------------|-----------------|-----------------|
A-|-----------------|----------------|-0-0-0-3--3-3-3--|-------3--3-3-3--|
E-|-3-x-3-x-3-x-3-x-|-1-x-1-x-1-x-1--|-----------------|-1-1-1-----------|

G-|-----------------|----------------|-----------------|
D-|-----------------|----------------|-----------------|
A-|-----------------|----------------|-5---------------|
E-|-3-x-3-x-3-x-3-x-|-1-x-1-x-1-x-1--|-----------------|
                                       ^Let Ring
Bridge:

G-|-----------------|----------------|-----------------|-----------------|
D-|-----------------|----------------|-----------------|-----------------|
A-|-0-0-0-3--3-3-3--|-------3--3-3-3-|-0-0-0-3--3-3-3--|-------3--3-3-3--|
E-|-----------------|-1-1-1----------|-----------------|-1-1-1-----------|

-Verse 2 (Same as verse 1)
-Chorus
-Bridge

Verse 3:

G-|-----------------|----------------|-----------------|-----------------|
D-|-----------------|----------------|-----------------|-----------------|
A-|------REST-------|------REST------|------REST-------|------REST-------|
E-|-----------------|----------------|-----------------|-----------------|

G-|-----------------|----------------|-----------------|-----------------|
D-|-----------------|----------------|-----------------|-----------------|
A-|-0-0-0-3--3-3-3--|-------3--3-3-3-|-0-0-0-0---------|-3-3-3-3---------|
E-|-----------------|-1-1-1----------|---------1-1-1-1-|---------1-1-1-1-|

-Chorus

Guitar Solo:

G-|-----------------|----------------|
D-|*----------------|---------------*|
A-|*0-0-0-3--3-3-3--|-------3--3-3-3*|
E-|-----------------|-1-1-1----------|

-Chorus

Outro:

G-|-----------------|----------------|-----------------|-----------------|
D-|*----------------|---------------*|----------3------|-----------------|
A-|*0-0-0-3--3-3-3--|-------3--3-3-3*|----3---------3--|-----------------|
E-|-----------------|-1-1-1----------|-1---------------|-----------------|
                                                    ^Let Ring

-----------------------------------------------------------------------------
			     Pixies - Nimrod's Son
-----------------------------------------------------------------------------

Tabbed By : Extra Blood

Tuning: Standard

Quiet easy piece of music.

G-|---------|--------------|------------|---------|---------|---------|
D-|---------|*------------*|------------|---------|---------|---------|
A-|---REST--|*-4----------*|-4----------|-4-------|---REST--|---------|
E-|---------|-----4-3-2-0--|----4-3-2-0-|---------|---------|-2-2-2-2-|

G-|---------|---------|---------|------------|---------|---------|
D-|---------|---------|---------|------------|---------|---------|
A-|-2-2-2-2-|---------|-3-3-3-3-|-4----------|---------|-2-2-2-2-|
E-|---------|-3-3-3-3-|---------|----4-3-2-0-|-2-2-2-2-|---------|

G-|---------|---------|------------|------------|---------|---------|
D-|---------|---------|------------|------------|---------|---------|
A-|---------|-3-3-3-3-|-4----------|-4----------|-2-2-2-2-|-2-2-2-2-|
E-|-3-3-3-3-|---------|----4-3-2-0-|----4-3-2-0-|---------|---------|

G-|---------|---------|---------|---------|---------|---------|
D-|---------|---------|---------|---------|---------|---------|
A-|-0-0-0-0-|-0-0-0-0-|---------|---------|---------|---------|
E-|---------|---------|-3-3-3-3-|-3-3-3-3-|-2-------|---------|
                                            ^Let Ring

G-|------------|------------|---------|------------|--------|---------|
D-|*-----------|-----------*|---------|*----------*|--------|---------|
A-|*4--5--2--4-|-4--5--2--4*|-4-------|*4---------*|-4------|---REST--|
E-|------------|------------|---------|----4-3-2-0-|--------|---------|
                              ^Let Ring

G-|---------|---------|---------|---------|------------|---------|
D-|---------|---------|---------|---------|------------|---------|
A-|---------|-2-2-2-2-|---------|-3-3-3-3-|-4----------|---------|
E-|-2-2-2-2-|---------|-3-3-3-3-|---------|----4-3-2-0-|-2-2-2-2-|

G-|---------|---------|---------|------------|------------|---------|
D-|---------|---------|---------|------------|------------|---------|
A-|-2-2-2-2-|---------|-3--REST-|-4----------|-4----------|-2-2-2-2-|
E-|---------|-3-3-3-3-|---------|----4-3-2-0-|----4-3-2-0-|---------|

G-|---------|---------|---------|---------|---------|---------|---------|
D-|---------|---------|---------|---------|---------|---------|---------|
A-|-2-2-2-2-|-0-0-0-0-|-0-0-0-0-|---------|---------|---------|---REST--|
E-|---------|---------|---------|-3-3-3-3-|-3-3-3-3-|-2-------|---------|
                                                      ^Let Ring

G-|------------|------------|--------------|
D-|*-----------|-----------*|--------------|
A-|*4--5--2--4-|-4--5--2--4*|-4------------|
E-|------------|------------|--------------|
                              ^Let Ring

That's it!

-----------------------------------------------------------------------------
			     Pixies - I've Been Tired
-----------------------------------------------------------------------------

Tabbed By : Extra Blood

Tuning: Standard

Listen to the song first.

Bass enters at 00:17

1st Riff
G-|---------|---------|---------|
D-|---------|---------|---------|
A-|---------|-0-0-0-0-|-3-3-3-3-|
E-|-3-3-3-3-|---------|---------|

1st Riff Variation
G-|---------|---------|---------|
D-|---------|---------|---------|
A-|---------|-0-0-0-0-|-3-5-3-5-|
E-|-3-3-3-3-|---------|---------|

2nd Riff 02:09
G-|---------|---------|---------|---------|
D-|---------|---------|---------|---------|
A-|---------|-0-0-0-0-|-3-3-3-3-|---------|
E-|-3-3-3-3-|---------|---------|-3-------|
                                  ^Let Ring

End Riff    (Slow Down)
G-|---------|---------|---------|
D-|*--------|--------*|---------|
A-|*3-3-3-3-|-3-3-3-3*|-3-------|
E-|---------|---------|---------|
                        ^Let Ring

-----------------------------------------------------------------------------
			     Pixies - Levitate Me
-----------------------------------------------------------------------------

Tabbed By : Extra Blood

Tuning: Standard

These are the only three
riff's used in this song.

Main Riff
G-|-----------------|-----------------|
D-|*---------------*|-----------------|
A-|*---------------*|-----------------|
E-|-0-0-0-0-0-0-0-0-|-4-4-4-4-5-5-5-5-|

"If All In All Is True"
G-|-----------------|-----------------|
D-|*---------------*|-----------------|
A-|*2-2-2-2-2-2-2-2*|-2-2-2-2-2-2-2-2-|
E-|-----------------|-----------------|

Start playing B very soft, then
play it louder and louder.

And then move on to the chorus.

"Won't You Please Fawn Over Me"
G-|-----------------|-----------------|
D-|-----------------|-----------------|
A-|-3-3-3-3-2-2-2-2-|-----------------|
E-|-----------------|-0-0-0-0-0-0-0-0-|

            
            
Suggest correction
Creating personal tab
Creating personal tab
You can edit any tab online and save it as your Personal.

You can edit, replace or remove any tab part or add personal notes – all changes will be seen only by you.

Personal tabs can be accessed anytime from any device, even offline.
Learn more »
Give kudos to tab author, rate the tab!
1 2 3 4 5
comments
print report bad tab
guest
You may want to rate the tab now too:
select rating
Wanna post a correction for this tab? Suggest correction