Oops, an error
Loading. Please wait.

Dead Tab

version 2
version 2

Whole song

Interactive

984 views 6 this week
1 commentread comment
1 2 3 4 5
please rate
add to favorites
launch autoscroll
font size
0
reset
how to read this tab
guitar tuner
Autoscroll
slow
fast
+/-
esc
set tempo
stop
Help us to improve Ultimate-Guitar.com Take our survey!
×
Author
--9----------9----------8--------------|
--13---------13---------9--------------|
---------------------------------------|
---------------------------------------|
---------------------------------------|
---------------------------------------|

---------------------------------------|
--4-4-4-4-4-4-4---4-4-4----------------|
--7-7-7-7-7-7-7---7-7-7----------------|
---------------------------------------|
---------------------------------------|
---------------------------------------|repeat a few times

---------------------------------------|
---------------------------4-4-4--4----|
---------------------------7-7-7--7----|
---------------------------------------|
---------------------------------------|
---------------------------------------|repeat a few times

----------------------------------|
--10---10---3---1---7----7--------|
--13---13---6---4---10---10-------|
----------------------------------|
----------------------------------|
----------------------------------|repeat a few times


----5--------5--------5-6-5----------------|
-----6---6-6--6---6-6-------8-6------------|
-------------------------------------------|
-------------------------------------------|
-------------------------------------------|
-------------------------------------------|

------5--------5--------5--6--7--8--13-----|
--6-6--6---6-6--6---6-6--------------------|
-------------------------------------------|
-------------------------------------------|
-------------------------------------------|
-------------------------------------------|

------5--------5--------5-6-5--------------|
--6-6--6---6-6--6---6-6-------8-6----------|
-------------------------------------------|
-------------------------------------------|
-------------------------------------------|
-------------------------------------------|
Suggest correction new What's this?
You can suggest a correction to this tab. Community and Mods will review your correction and vote to approve or reject it.
comments
We did not receive enough feedback on this tab! Please rate:
print report bad tab
1 2 3 4 5
1 comment total.
0 reply
Andersonrhcp22 266 wrote on February 16 2013, 10:55 am

-----5-------5--------5-6-5--------------|
--6-6-6---6-6-6---6-6--------8-6---------|
-----------------------------------------|
-----------------------------------------|
-----------------------------------------|
-----------------------------------------|

-----5-------5--------5-6-7-8-13---------|
--6-6-6---6-6-6---6-6--------------------|
-----------------------------------------|
-----------------------------------------|
-----------------------------------------|
-----------------------------------------|

-----5-------5--------5-6-5--------------|
--6-6-6---6-6-6---6-6-------8--6---------|
-----------------------------------------|
-----------------------------------------|
-----------------------------------------|
-----------------------------------------|

guest
You may want to rate the tab now too:
select rating
Please do not post tabs as comments. Select "correction" instead!