Oops, an error
Loading. Please wait.
We have an official Debaser tab made by UG professional guitarists. Check out the tab »
×
by Pixies
8,662 views 3 this week
no commentswrite comment
1 2 3 4 5
x 4
add to favorites
×
Save as Personal and add changes to this tab that will be seen only by you. Learn more ›
×
You can save this tab as Personal to edit and correct it or add notes. All changes will be seen only by you. Learn more »
launch autoscroll
font size
0
reset
guitar tuner
backing track
0:00
0:00
edit
Autoscroll
slow
fast
+/-
esc
set tempo
stop
Difficulty
R- rest for a whole note
Intro:
|-------------------------------------------------| 
|-------------------------------------------------|
|--1--1--1--1-------------3--3--3--3--------------|
|------------ 1--1--1--1--------------1--1--1--1--|

 |---------------------------------------------|
 |-0--0--0--0-------------------------------------|
 |------------0--0--0--0--1--1--1--1--3--3--3--3--|
 |---------------------------------------------|

|-------------------------------------------------|
|-------------------------------------0--0--0--0--|
|-------------0--0--0--0--3--3--3--3--------------|
|-1--1--1--1--------------------------------------|

|-------------------------------------------------|
|-------------------------------------------------|
|-1--1--1--1--3--3--3--3--------------R--3--3-----|
|-------------------------3--3--3--3-----------3--|

|-------------------------------------------------|
|-------------------------------------0--0--0--0--|
|-------------0--0--0--0--3--3--3--3--------------|
|-1--1--1--1--------------------------------------|

|-------------------------------------------------|
|-------------------------------------------------|
|-1--1--1--1--3--3--3--3--------------R--3--3-----|
|-------------------------3--3--3--3-----------3--|

Verse: these notes are played really fast, listen to the record for timing
|-------------------------------------------------|
|-------------------------------------------------|
|----------1-1-1-1-1-1-1-----------1-1-1-1-1-1-1--|
|-1-1-1-1-----------------3-3-3-3-----------------| 

"...but i am un chien andalusia..."
|-------------------------------------------------|
|-------------------------------------------------|
|----------1-1-1-1-1-1-1-----------1-1-1-1-1-1-3--|
|-1-1-1-1-----------------3-3-3-3-----------------|

Pre-chorus:
|-------------------------------------------------|
|-------------------------------------------------|
|-1-1-1-1--etc------------------------------------|
|-------------------------------------------------|

Tacet - bass rests until the drums come back in heavily. If you listen 
carefully, you'll be able to pinpoint it...

Chorus:
|-------------------------------------------------|
|-0--0--0--0--------------------------------------|
|-------------0--0--0--0--1--1--1--1--3--3--3--3--|
|-------------------------------------------------|

|-------------------------------------------------|
|-------------------------------------0--0--0--0--|
|-------------0--0--0--0--3--3--3--3--------------|
|-1--1--1--1--------------------------------------|

|-------------------------------------------------|
|-------------------------------------------------|
|-1--1--1--1--3--3--3--3--------------R--3--3-----|
|-------------------------3--3--3--3-----------3--|

|-------------------------------------------------|
|-------------------------------------0--0--0--0--|
|-------------0--0--0--0--3--3--3--3--------------|
|-1--1--1--1--------------------------------------|

|-------------------------------------------------|
|-------------------------------------------------|
|-1--1--1--1--3--3--3--3--------------R--3--3-----|
|-------------------------3--3--3--3-----------3--|

Tacet - bass rests for first half of the next verse

Verse:
|-------------------------------------------------|
|-------------------------------------------------|
|----------1-1-1-1-1-1-1-----------1-1-1-1-1-1-3--|
|-1-1-1-1-----------------3-3-3-3-----------------| x4

Pre-chorus:
|-------------------------------------------------|
|-------------------------------------------------|
|-1-1-1-1--etc------------------------------------|
|-------------------------------------------------|

Tacet - bass rests until the drums come back in heavily. If you 
listen carefully, you'll be able to pinpoint it...

Chorus:
|-------------------------------------------------|
|-0--0--0--0--------------------------------------|
|-------------0--0--0--0--1--1--1--1--3--3--3--3--|
|-------------------------------------------------|

|-------------------------------------------------|
|-------------------------------------0--0--0--0--|
|-------------0--0--0--0--3--3--3--3--------------|
|-1--1--1--1--------------------------------------|

|-------------------------------------------------|
|-------------------------------------------------|
|-1--1--1--1--3--3--3--3--------------R--3--3-----|
|-------------------------3--3--3--3-----------3--|

|-------------------------------------------------|
|-------------------------------------0--0--0--0--|
|-------------0--0--0--0--3--3--3--3--------------|
|-1--1--1--1--------------------------------------|

|-------------------------------------------------|
|-------------------------------------------------|
|-1--1--1--1--3--3--3--3--------------R--3--3-----|
|-------------------------3--3--3--3-----------3--|

Outro:
|-------------------------------------------------|
|-------------------------------------------------|
|----------1-1-1-1-1-1-1-----------1-1-1-1-1-1-1--|
|-1-1-1-1-----------------3-3-3-3-----------------| x4

|-------------------------------------------------|
|-------------------------------------------------|
|----------1-1-1-1-1-1-1-----------1-1-1-1-1-1-3--|
|-1-1-1-1-----------------3-3-3-3-----------------| x8

Alternatively, you can play the first part of the outro 4 times, the 
second part 7 times and end w/ this:
|-----------------------------------------------------|
|-0--0--0--0------------------------------------------|
|--------------0--0--0--0--0--1--1--1--3--3--3--------|
|-----------------------------------------------3--1--|

            
            
Suggest correction
Creating personal tab
Creating personal tab
You can edit any tab online and save it as your Personal.

You can edit, replace or remove any tab part or add personal notes – all changes will be seen only by you.

Personal tabs can be accessed anytime from any device, even offline.
Learn more »
comments
print report bad tab
guest
Wanna post a correction for this tab? Suggest correction