Oops, an error
Loading. Please wait.
We have an official Debaser tab made by UG professional guitarists. Check out the tab »
×
by Pixies
898 views 1 this week
2 commentsread comments
1 2 3 4 5
2 more votes to show rating
add to favorites
×
Save as Personal and add changes to this tab that will be seen only by you. Learn more ›
×
You can save this tab as Personal to edit and correct it or add notes. All changes will be seen only by you. Learn more »
launch autoscroll
font size
0
reset
guitar tuner
backing track
0:00
0:00
edit
Autoscroll
slow
fast
+/-
esc
set tempo
stop
Author
Difficulty
-------------------------------------------------------------------------------
                             DEBASER - Pixies
-------------------------------------------------------------------------------
Tabbed by: Godfrey81
E-mail: monsterkikwi@gmail.com

Tuning: Standard (EADG)

Intro
G|--------------------------------|--------------------------------|
D|--------------------------------|--------------------------------|
A|--------------------------------|-5-5-5-5------------------------|
E|-6-6-6-6-1-1-1-1-8-8-8-8-1-1-1-1|---------5-5-5-5-6-6-6-6-8-8-8-8|

G|--------------------------------|--------------------------------|
D|--------------------------------|--------------------------------|
A|---------0-0-0-0-3-3-3-3-5-5-5-5|--------------------------------|
E|-1-1-1-1------------------------|-5-5-5-5-6-6-6-6-3-3-3-3-3-3-x-3| x2

Verse 1
G|---------------------------------|---------------------------------|
D|---------------------------------|---------------------------------|
A|---------------------------------|---------------------------------|
E|-1-1-1-1/6-6-6-6\3-3-3-3/6-6-6-6\|-1-1-1-1/6-6-6-6\3-3-3-3/6-6-6-6\| x3

G|---------------------------------|-------------------------|
D|---------------------------------|-------------------------|
A|---------------------------------|-------------------------|
E|-1-1-1-1/6-6-6-6\3-3-3-3/6-6-6-6\|-1-1-1-1/6-6-6-6\3-3-3-3/|

Chorus 1
G|--------------------------------|
D|--------------------------------|
A|--------------------------------|
E|-6-6-6-6-6-6-6-6-6-6-6-6-6-6-6-6|

G|--------------------------------|--------------------------------|
D|--------------------------------|--------------------------------|
A|--------------------------------|-5-5-5-5------------------------|
E|-6-6-6-6-1-1-1-1-8-8-8-8-1-1-1-1|---------5-5-5-5-6-6-6-6-8-8-8-8|

G|--------------------------------|--------------------------------|
D|--------------------------------|--------------------------------|
A|---------0-0-0-0-3-3-3-3-5-5-5-5|--------------------------------|
E|-1-1-1-1------------------------|-5-5-5-5-6-6-6-6-3-3-3-3-3-3-x-3| x2

Verse 2
G|--------|--------|--------|--------|
D|--------|--------|--------|--------|
A|--------|--------|--------|--------|
E|-1------|--------|--------|--------|

G|---------------------------------|---------------------------------|
D|---------------------------------|---------------------------------|
A|---------------------------------|---------------------------------|
E|-1-1-1-1/6-6-6-6\3-3-3-3/6-6-6-6\|-1-1-1-1/6-6-6-6\3-3-3-3/6-6-6-6\| x2

Chorus 2
G|--------------------------------|--------------------------------|
D|--------------------------------|--------------------------------|
A|--------------------------------|-5-5-5-5------------------------|
E|-6-6-6-6-1-1-1-1-8-8-8-8-1-1-1-1|---------5-5-5-5-6-6-6-6-8-8-8-8|

G|--------------------------------|--------------------------------|
D|--------------------------------|--------------------------------|
A|---------0-0-0-0-3-3-3-3-5-5-5-5|--------------------------------|
E|-1-1-1-1------------------------|-5-5-5-5-6-6-6-6-3-3-3-3-3-3-x-3| x2

Outro
G|---------------------------------|---------------------------------|
D|---------------------------------|---------------------------------|
A|---------------------------------|---------------------------------|
E|-1-1-1-1/6-6-6-6\3-3-3-3/6-6-6-6\|-1-1-1-1/6-6-6-6\3-3-3-3/6-6-6-6\| x6

G|--------|
D|--------|
A|--------|
E|-1------|



| /  slide up
| \  slide down
| h  hammer-on
| p  pull-off
| ~  vibrato
| +  harmonic
| x  Mute note
===============================================================================

            
            
Suggest correction
Creating personal tab
Creating personal tab
You can edit any tab online and save it as your Personal.

You can edit, replace or remove any tab part or add personal notes – all changes will be seen only by you.

Personal tabs can be accessed anytime from any device, even offline.
Learn more »
Give kudos to tab author, rate the tab!
1 2 3 4 5
comments
print report bad tab
2 comments total.
0 reply
kazi6060 20 Oct 02, 2013 06:34 AM

THANKS ! finally someone did an accurate one

0 reply
kazi6060 20 Oct 03, 2013 04:23 AM

Well, *almost* accurate
Kim plays mostly on the low E, and the timing of the slides are a bit tricky, that's what gives the special groove to the song.
But on the 3th bar (and every tab here on this site got it wrong) she doesnt play an A, but an A#. And she doesnt end with G, but C (same time as Frank does a C on the guitar)

So the intro should look like this :

A#      F      C        F        Dm      Am       A#      C
BASS
G|--------------------------------|--------------------------------|
D|--------------------------------|--------------------------------|
A|--------------------------------|-5-5-5-5------------------------|
E|-6-6-6-6-1-1-1-1-8-8-8-8-1-1-1-1|---------5-5-5-5-6-6-6-6-8-8-8-8|

F A# C Dm Am A# F * C
G|--------------------------------|--------------------------------|
D|--------------------------------|--------------------------------|
A|---------1-1-1-1-3-3-3-3-5-5-5-5|-------------------------3-3-3--|
E|-1-1-1-1------------------------|-5-5-5-5-6-6-6-6-1-1-1-*--------| REPEAT :

F A# C Dm Am A# F * C
G|--------------------------------|--------------------------------|
D|--------------------------------|--------------------------------|
A|---------1-1-1-1-3-3-3-3-5-5-5-5|-------------------------3-3-3--|
E|-1-1-1-1------------------------|-5-5-5-5-6-6-6-6-1-1-1-*--------|

guest
You may want to rate the tab now too:
select rating
Wanna post a correction for this tab? Suggest correction