Oops, an error
Loading. Please wait.

Distance Equals Rate Times Time bass

version 2
version 2

Whole song

by Pixies
103 views 6 this week
no commentswrite comment
1 2 3 4 5
2 more votes to show rating
add to favorites
×
Save as Personal and add changes to this tab that will be seen only by you. Learn more ›
×
You can save this tab as Personal to edit and correct it or add notes. All changes will be seen only by you. Learn more »
launch autoscroll
font size
0
reset
guitar tuner
edit
Autoscroll
slow
fast
+/-
esc
set tempo
stop
Author
Difficulty
-------------------------------------------------------------------------------
                 DISTANCE EQUALS RATE TIMES TIME - Pixies
-------------------------------------------------------------------------------
Tabbed by: whatgoesboom

Tuning: Standard

From watching live versions of this, Kim, and now Paz, play this mostly on the 
E string so that's how I've tabbed it.

Verse: 
G|--------------------------------------------------------------------------|
D|--------------------------------------------------------------------------|
A|--------------------------------------------------------------------------|
E|--7-7-7-7--5-5-5-5--9-9-9-9--9-9-9-9--7-7-7-7--5-5-5-5--9-9-9-9--9-9-9-9--|

Chorus:
G|--------------------------------------------------------------------------------|
D|--------------------------------------------------------------------------------|
A|------7----0-0-9-0------------------------7----0-0-9-0--------------------------|
E|--7-7---7-----------9-9-9-9--9-9-9-9--7-7---7-----------9-9-10-10--12-12-14-14--|

Verse x1 
Chorus x1

Verse x1
Chorus x1

Chorus x3
Verse x1

Outro:
G|-----------------------------------------------------------|
D|-----------------------------------------------------------|
A|-----------------------------------------------------------|
E|--9-9-9-9--9-9-9-9--9-9-9-9--9-9-9-9--9-9-9-9--9-9-9-9--9--|

| /  slide up
| \  slide down
| h  hammer-on
| p  pull-off
| ~  vibrato
| +  harmonic
| x  Mute note
===============================================================================

            
            
Suggest correction
Creating personal tab
Creating personal tab
You can edit any tab online and save it as your Personal.

You can edit, replace or remove any tab part or add personal notes – all changes will be seen only by you.

Personal tabs can be accessed anytime from any device, even offline.
Learn more »
Give kudos to tab author, rate the tab!
1 2 3 4 5
comments
print report bad tab
guest
You may want to rate the tab now too:
select rating
Wanna post a correction for this tab? Suggest correction