Oops, an error
Loading. Please wait.

Doolittle album bass

by Pixies
15,776 views 12 this week
2 commentsread comments
1 2 3 4 5
x 10
add to favorites
×
Save as Personal and add changes to this tab that will be seen only by you. Learn more ›
×
You can save this tab as Personal to edit and correct it or add notes. All changes will be seen only by you. Learn more »
launch autoscroll
font size
0
reset
guitar tuner
edit
Autoscroll
slow
fast
+/-
esc
set tempo
stop
The Pixies - Doolittle - 1989

Tracklist -

1. Debaser
2. Tame
3. Wave of Mutilation
4. I Bleed
5. Here Comes Your Man
6. Dead
7. Monkey Gone to Heaven
8. Mr. Grieves
9. Crackity Jones
10. La La Love You
11. No. 13 Baby
12. There Goes My Gun
13. Hey
14. Silver
15. Gouge Away

-----------------------------------------------------------------------------
			  Pixies - Debaser
-----------------------------------------------------------------------------

Tabbed By : Extra Blood
e-mail: Lenda@ofir.dk

Tuning: Standard

Intro:

G-|-----------------|-----------------|-----------------|-----------------
D-|-----------------|-----------------|-----------------|-----------------
A-|-----------------|-3-3-3-3---------|-5-5-5-5-0-0-0-0-|-1-1-1-1-3-3-3-3-
E-|-6-6-6-6-1-1-1-1-|---------1-1-1-1-|-----------------|-----------------

G-|-----------------|-----------------|-----------------|-----------------|
D-|*----------------|-----------------|-----------------|----------------*|
A-|*--------0-0-0-0-|-3-3-3-3-5-5-5-5-|-1-1-1-1-3-3-3-3-|---------x-3-3--*|
E-|-1-1-1-1---------|-----------------|-----------------|-3-3-3-3-------3-|

Verse: 

G-|-----------------|-----------------|
D-|-----------------|-----------------|
A-|---------1-1-1-1-|---------1-1-1-1-|
E-|-1-1-1-1---------|-3-3-3-3---------| 

   "...but i am un chien andalusia..."
G-|-----------------|-----------------|
D-|-----------------|-----------------|
A-|---------1-1-1-1-|---------1-1-1-3-|
E-|-1-1-1-1---------|-3-3-3-3---------|

Pre-chorus:

G-|-----------------|-----------------|
D-|-----------------|-----------------|
A-|-1-1-1-1-1-1-1-1-|-1-1-1-1-1-1-1-1-|
E-|-----------------|-----------------|

*Pause*

Chorus:

G-|-----------------|-----------------|-----------------|-----------------
D-|-----------------|-----------------|*----------------|-----------------
A-|-5-5-5-5-0-0-0-0-|-1-1-1-1-3-3-3-3-|*--------0-0-0-0-|-3-3-3-3-5-5-5-5-
E-|-----------------|-----------------|-1-1-1-1---------|-----------------

G-|-----------------|-----------------|
D-|-----------------|----------------*|
A-|-1-1-1-1-3-3-3-3-|---------x-3-3--*|
E-|-----------------|-3-3-3-3-------3-|

Bass rests for first half of the next verse.

-Verse

-Pre-chorus

*Pause*

-Chorus

Outro:

G-|-----------------|-----------------|-----------------|
D-|*----------------|----------------*|-----------------|
A-|*--------1-1-1-1-|---------1-1-1-1*|-----------------|
E-|-1-1-1-1---------|-3-3-3-3---------|-1---------------|
                                        ^Let Ring

-----------------------------------------------------------------------------
			  Pixies - Tame
-----------------------------------------------------------------------------

Tabbed By : Extra Blood
e-mail: Lenda@ofir.dk

Tuning: Standard

Pretty simple.

Intro / Verse:

G-|-----------------|-----------------|-----------------|-----------------
D-|-----------------|-----------------|-----------------|-----------------
A-|-5-5-x-5-5-5-x-3-|-3-3-x-3-3-3-x---|---------------5-|-5-5-x-5-5-5-x-3-
E-|-----------------|---------------1-|-1-1-x-1-1-1-x---|-----------------

G-|-----------------|-----------------|-----------------|-----------------
D-|-----------------|-----------------|-----------------|-----------------
A-|-3-3-x-3-3-3-x-8-|-8-8-x-8-8-8-x-5-|-5-5-x-5-5-5-x-3-|-3-3-x-3-3-3-x-8-
E-|-----------------|-----------------|-----------------|-----------------

G-|-----------------|-----------------|-----------------|-----------------|
D-|-----------------|-----------------|-----------------|-----------------|
A-|-8-8-x-8-8-8-x-5-|-5-5-x-5-5-5-x-3-|-3-3-x-3-3-3-x-8-|-8-8-x-8-8-8-x-x-|
E-|-----------------|-----------------|-----------------|-----------------|

Chorus:

G-|-----------------|-----------------|-----------------|
D-|*----------------|-----------------|----------------*|
A-|*5-5-5-5-5-5-5-5-|-3-3-3-3-3-3-3-3-|-8-8-8-8-8-8-8-8*|
E-|-----------------|-----------------|-----------------|

Now repeat the verse & chorus twice.

Outro:

G-|-----------------|-----------------|-----------------|----|
D-|*----------------|-----------------|----------------*|----|
A-|*5-5-5-5-5-5-5-5-|-3-3-3-3-3-3-3-3-|-8-8-8-8-8-8-8-8*|-5--|
E-|-----------------|-----------------|-----------------|----|

-----------------------------------------------------------------------------
			  Pixies - Wave of Mutilation
-----------------------------------------------------------------------------

Artist: Pixies
Song: Wave of Mutilation
Album: Doolittle
Tabber: Debaser 101

I've tabbed the whole song out so just play this through.

G-|-----------------|-----------------|-----------------|-----------------
D-|-----------------|-----------------|-----------------|-----------------
A-|-----------------|-----------------|-1---1-----------|-----------------
E-|-6-6-6-6-6-6-6-6-|-3-3-3-3-3-3-3-3-|---3---3-1-1-1-1-|-1-1-1-1-5-5-5-5-

G-|-----------------|-----------------|-----------------|-----------------
D-|-----------------|-----------------|-----------------|-----------------
A-|-----------------|-----------------|---------1---1---|-----------------
E-|-5-5-5-5-6-6-6-6-|-6-6-6-6-3-3-3-3-|-3-3-3-3---3---3-|-1-1-1-1-5-5-5-5-

G-|-----------------|-----------------|-----------------|-----------------
D-|-----------------|-----------------|-----------------|-----------------
A-|-----------------|-----------------|-----------------|-----------1---1-
E-|-6-6-6-6-1-1-1-1-|-5-5-5-5-6-6-6-6-|-1-1-1-1-5-5-5-5-|-6-6-6-6-3---3---

G-|-----------------|-----------------|-----------------|-----------------
D-|-----------------|-----------------|-----------------|-----------------
A-|-----------------|---------3---3---|-----------------|-----------------
E-|-1-1-1-1-1-0-1-0-|-5-5-5-5---5---5-|-6-6-6-6-6-6-6-6-|-3-3-3-6-6-5-5-3-

G-|-----------------|-----------------|-----------------|-----------------
D-|-----------------|-----------------|-----------------|-----------------
A-|-----------------|---------3---3---|-----------------|-----------------
E-|-1-1-1-1-1-0-1-0-|-5-5-5-5---5---5-|-6-6-6-6-6-6-6-6-|-3-3-3-6-6-5-5-3-

G-|-----------------|-----------------|-----------------|-----------------
D-|-----------------|-----------------|-----------------|-----------------
A-|-----------------|-----------------|-----------------|-----------------
E-|-1-1-1-1-1-1-1-1-|-5-5-5-5-5-5-5-5-|-6-6-6-6-6-6-6-6-|-3-3-3-3-6-3-6-3-

G-|-----------------|-----------------|-----------------|-----------------
D-|-----------------|-----------------|-----------------|-----------------
A-|-----------------|-----------------|-----------------|-----------------
E-|-1-1-1-1-5-5-5-5-|-6-6-6-6-1-1-1-1-|-5-5-5-5-6-6-6-6-|-1-1-1-1-5-5-5-5-

G-|-----------------|-----------------|-----------------|-----------------
D-|-----------------|-----------------|-----------------|-----------------
A-|-----------------|-----------------|-----------------|-----------------
E-|-6-6-6-1---------|-6---------------|-1---------------|-6---------------

G-|-----------------|-----------------|-----------------|-----------------
D-|-----------------|-----------------|-----------------|-----------------
A-|-----------------|-----------------|-----------------|-----------------
E-|-6-6-6-6-6-6-6-6-|-3-3-3-3-3-3-3-3-|-6-3-6-3-1-1-1-1-|-1-1-1-1-1-1-1-1-

G-|-----------------|-----------------|-----------------|-----------------
D-|-----------------|-----------------|-----------------|-----------------
A-|-----------------|-3---3-----------|-----------------|-----------------
E-|-1-0-1-0-5-5-5-5-|---5---5-6-6-6-6-|-6-6-6-6-3-3-3-6-|-6-5-5-3-1-1-1-1-

G-|-----------------|-----------------|-----------------|-----------------
D-|-----------------|-----------------|-----------------|-----------------
A-|-----------------|-3---3-----------|-----------------|-----------------
E-|-1-0-1-0-5-5-5-5-|---5---5-6-6-6-6-|-6-6-6-6-3-3-3-6-|-6-5-5-3-1-1-1-1-

G-|-----------------|-----------------|-----------------|-----------------
D-|-----------------|-----------------|-----------------|-----------------
A-|---------0-0-0-0-|-0-0-0-0-1-1-1-1-|-1-1-1-1---------|-1-------1-------
E-|-1-1-1-1---------|-----------------|---------3-3-3-3-|-----3-------3---

G-|-----------------|-----------------|-----------------|-----------------
D-|-----------------|-----------------|-----------------|-----------------
A-|-----------------|-----------------|-----------------|-----------------
E-|-1-1-1-1-5-5-5-5-|-6-6-6-6-1-1-1-1-|-5-5-5-5-6-6-6-6-|-1-1-1-1-5-5-5-5-

G-|-----------------|-----------------|-----------------|-----------------
D-|-----------------|-----------------|-----------------|-----------------
A-|-----------------|-----------------|-----------------|-----------------
E-|-6-6-6-1-1-1-1-1-|-1-1-1-5-5-6-6-5-|-5-6-6-1-1-1-1-1-|-1-1-1-66666/-8--

G-|-----------------|-----------------|-----------------|-----------------
D-|-----------------|-----------------|-----------------|-----------------
A-|-----------------|-----------------|-----------------|-----------------
E-|-1-1-1-1-5-5-5-5-|-6-6-6-6-1-1-1-1-|-5-5-5-5-6-6-6-6-|-1-1-1-1-5-5-5-5-

G|------------------|-----------------|-----------------|-----------------|
D|------------------|-----------------|-----------------|-----------------|
A|------------------|-----------------|-----------------|-----------------|
E|-6-6-6-1----------|-6---------------|-1---------------|-6---------------|

-----------------------------------------------------------------------------
			  Pixies - I Bleed
-----------------------------------------------------------------------------

Tabbed By : Extra Blood

Tuning: Standard

You basicly use this riff here, as the intro, and as the 
1st & 2nd verse. So you'll be playing this part alot!

G|------------------|------------------|-
D|*-----------------|------------------|-
A|*-----------------|------------------|-
E|-2-22/-9-99-9-9-9-|-2-22/-7-77-7-7-7-|-

G|------------------|------------------|
D|------------------|-----------------*|
A|------------------|-----------------*|
E|-2-22/-9-99-9-9-9-|-2-22/-7-77-7-7-7-|

The 1st & 2nd chorus is played like this:

G|-------------------|------------------|------------------|
D|*------------------|------------------|-----------------*| Just play once
A|*------------------|------------------|-----------------*| at the 1st chorus. 
E|--2-22/-9-99-9-9-9-|-2-22/-9-99-9-9-9-|-2-22/-9-99-9-9-9-|

Then re-play the intro & the 2nd verse,
then move on to the 2nd chorus.


Then after the chorus, there is this small 
part that fills in just before the solo.

G|-----------------|-----------------|-----------------|-----------------|
D|-----------------|-----------------|-----------------|-----------------|
A|-------2-4-4-3-2-|---------2-2-0---|-------2-4-4-3-2-|---------2-2-0---|
E|-2-2-2-----------|-2-2-2-4-------4-|-2-2-2-----------|-2-2-2-4-------4-|

Then comes the solo, which is played like this:

G|------------------|------------------|------------------|-------------|-
D|------------------|------------------|------------------|-------------|-
A|------------------|------------------|------------------|-------------|-
E|-2-22/-9-99-9-9-9-|-2-22/-9-99-9-9-9-|-2-22/-9-99-9-9-9-|-h5--(5)--5\-|-

G|-----------------|-----------------|-----------------|-----------------|-
D|-----------------|-----------------|-----------------|-----------------|-
A|-4-4-4-4---------|-----------------|-4-4-4-4---------|-----------------|-
E|---------0-0-0-0-|-1-1-1-1-5-5-5-5-|---------0-0-0-0-|-1-1-1-1-5-5-5-5-|-

G|-----------------|-----------------|-----------------|---------|
D|-----------------|-----------------|-----------------|---------|
A|-4-4-4-4---------|-----------------|-4-4-4-4---------|---------|
E|---------0-0-0-0-|-1-1-1-1-5-5-5-5-|---------0-0-0-0-|-2-2-2-2-|

Now play the out-chorus, like this:

G|------------------------|------------------------|------------------------|
D|------------------------|------------------------|------------------------|
A|------------------------|------------------------|------------------------|
E|-2-22/-10-1010-10-10-10-|-2-22/-10-1010-10-10-10-|-2-22/-10-1010-10-10-10-|

  Slow down at this part.
G|-------------------------|----------------------------|
D|-------------------------|----------------------------|
A|-------------------------|----------------------------|
E|-10-10-10-10-10-10-10-10-|-h5~-----------------(5)----|

And that's it!

-----------------------------------------------------------------------------
			  Pixies - Here Comes Your Man
-----------------------------------------------------------------------------

The Pixies - Here comes your man

Maybe it´s not all right, but I hopes it helpes you. 

Chorus/ Main-Riff:

(x2)
   1 + 2 + 3 + 4 +  1 + 2 + 3 + 4 + 
G|----------------|----------------||  
D|-----4-4-5------|----------------||   
A|-5-5------------|-2-0---4-5-7-5--||   
E|-----------5-3--|-----5----------||

   1 + 2 + 3 + 4 +  1 + 2 + 3 + 4 +
G|----------------|----------------||  
D|-----4-4-5------|----------------||   
A|-5-5------------|-2-0---4-5-7----||   
E|-----------5-3--|-----5----------||

Verse:

(x4)
  1 + 2 + 3 + 4 + 1 + 2 + 3 + 4 + 1 + 2 + 3 + 4 + 1 + 2 + 3 + 4 + 
G|---------------|---------------|---------------|---------------||
D|---------------|---------------|---------------|---------------||   
A|5-----5-----5--|--------4-4-5--|---------------|--------2-2-3-3||   
E|----------5----|5-5---5-------5|0-----0---0-2--|3-3---3------ -||

Before the Chorus, play this one time:

  1 + 2 + 3 + 4 + 1 + 2 + 3 + 4 + 1 + 2 + 3 + 4 + 1 + 2 + 3 + 4 + 
G|---------------|---------------|---------------|---------------||
D|---------------|---------------|---------------|--------4-4-5-7||   
A|2-----2-2------|---------------|---------------|5-5-5-5------ -||   
E|---------------|3-----3-3------|5---5-5-5-5-5-5|---------------||

Start of the Chorus:

   5 +  1 + 2 + 3 + 4 + 
G|----|----------------||  
D|----|----------------||   
A|----|-2-0---4-5-7-5--||   
E|-3--|-----5----------||

Chorus:

   1 + 2 + 3 + 4 +  1 + 2 + 3 + 4 + 
G|----------------|----------------||  
D|-----4-4-5------|----------------||   
A|-5-5------------|-2-0---4-5-7-5--||   
E|-----------5-3--|-----5----------||

   1 + 2 + 3 + 4 +  1 + 2 + 3 + 4 + 
G|----------------|----------------||  
D|-----4-4-5------|----------------||   
A|-5-5------------|-2-0---4-5-7----||   
E|-----------5-3--|-----5----------||

Again the Verse:

   1 + 2 + 3 + 4 + 1 + 2 + 3 + 4 +  1 + 2 + 3 + 4 + 1 + 2 + 3 + 4 + 
G|----------------|----------------|---------- ----|----------------||
D|----------------|----------------|---------------|----------------||   
A|-5-----5-----5--|--------4-4-5---|---------------|--------2---3---||   
E|-----------5----|5-5---5-------5-|0-----0---0-2--|3-3---3---------||

(x2)
   1 + 2 + 3 + 4 + 1 + 2 + 3 + 4 +  1 + 2 + 3 + 4 + 1 + 2 + 3 + 4 + 
G|----------------|----------------|---------------|----------------||
D|----------------|----------------|---------------|----------------||   
A|-5-----5-----5--|--------4-4-5---|---------------|--------2-2-3-3-||   
E|-----------5----|5-5---5-------5-|0-----0---0-2--|3-3---3---------||

   1 + 2 + 3 + 4 + 1 + 2 + 3 + 4 + 1 + 2 + 3 + 4 + 1 + 2 + 3 + 4 + 
G|----------------|---------------|---------------|----------------||
D|----------------|---------------|---------------|--------4-4-5-7-||   
A|-2-----2-2------|---------------|---------------|5-5-5-5---------||   
E|----------------|3-----3-3------|5--5-5-5-5-5-5-|----------------||

Start of the Chorus:

   5 +  1 + 2 + 3 + 4 + 
G|----|----------------||  
D|----|----------------||   
A|----|-2-0---4-5-7-5--||   
E|-3--|-----5----------||

Chorus(x2):

   1 + 2 + 3 + 4 +  1 + 2 + 3 + 4 + 
G|----------------|----------------||  
D|-----4-4-5------|----------------||   
A|-5-5------------|-2-0---4-5-7-5--||   
E|-----------5-3--|-----5----------||

   1 + 2 + 3 + 4 +  1 + 2 + 3 + 4 + 
G|----------------|----------------||  
D|-----4-4-5------|----------------||   
A|-5-5------------|-2-0---4-5-7----||   
E|-----------5-3--|-----5----------||

Interlude/ Solo-Part: 

   1 + 2 + 3 + 4 +  1 + 2 + 3 + 4 +  1 + 2 + 3 + 4 +  1  + 2 + 3  +  4 + 
G|-----------------|----------------|----------------|-------------------|
D|-----------------|----------------|----------------|-------------------|   
A|-5-5-5---5-5-5-5-|----------------|7-7-7---7-7-7-7-|10-9-9-7-10-10-9-7-|   
E|-------5---------|5-5-5-0-5-5-5-5-|------7---------|-------------------|

G|-----------------|----------------|----------------|-------------------|
D|-----------------|----------------|----------------|-----------------7-|   
A|-5-5-5---5-5-5-5-|----------------|7-7-7---7-7-7-7-|10-9-9-7-10-10-9---|   
E|-------5---------|5-5-5-0-5-5-5-5-|------7---------|-------------------|

G|-----------------|----------------|----------------|
D|-----------------|----------------|----------------| 
A|-5-5-5---5-5-5-5-|----------------|7-7-7-7-7-7-7-7-|  
E|-------5---------|5-5-5-0-5-5-5-5-|----------------|

G|------------------------|-----------------|
D|------------------------|-----------------|
A|10-10-10-10-10-10-10-10-|-5-5-5-5-5-5-5-5-|
E|------------------------|-----------------|

G|----------------|----------------|------------------------|
D|----------------|----------------|------------------------|   
A|----------------|7-7-7-7-7-7-7-7-|10-10-10-10-10-10-10-10-|   
E|5-5-5-5-5-5-5-5-|----------------|------------------------|

  1 + 2 + 3 + 4 + 1 + 2 + 3 + 4 + 1 + 2 + 3 + 4 +  1 + 2 + 3 + 4 +  1 +
G|---------------|---------------|----------------|----------------|----||
D|---------------|---------------|----------------|----------------|----||   
A|2-----2-2------|3-----3-3------|----------------|5-5-5-5-5-5-5-5-|5---||   
E|---------------|---------------|5---5-5-5-5-5-5-|----------------|----||

Play again the Chorus till the end:

   1 + 2 + 3 + 4 +  1 + 2 + 3 + 4 + 
G|----------------|----------------||  
D|-----4-4-5------|----------------||   
A|-5-5------------|-2-0---4-5-7-5--||   
E|-----------5-3--|-----5----------||

-----------------------------------------------------------------------------
			  Pixies - Dead
-----------------------------------------------------------------------------

Tabbed By : Extra Blood

Tuning: Standard

A fun and easy song to play. Please 
leave behind a rating or a comment.

This is how the intro goes. 
The bass doesn't enter right away.

G|---|------------------|-------------------|---------------------------|-
D|---|------------------|-------------------|---------------------------|-
A|---|------------------|-------------------|---------------------------|-
E|---|-4/-5-5-5-5-5-5-5-|-5-5-5-5--4/-5-5-5-|-5-5-5-5--4/-5-5-5-5-5-5-5-|-

G|-----------------|----------------------|---------------------|
D|-----------------|----------------------|---------------------|
A|-----------------|--0-3----0----0-3\--1-|-0-x-0-3-x-3-x-5-5-5-|
E|-4/-5--4/-5--4---|----------------------|---------------------|

This is the 1st verse, you'll
be playing this for a few times.

G|----------------------|----------------------|-------|
D|*---------------------|---------------------*|-------|
A|*-0-x-0-3-x-3-5-5-5-5-|-0-x-0-3-x-3-5-5-5-5-*|-0-0-0-|
E|----------------------|----------------------|-------|

There is a small pause between the verse and the chorus.

This part is the chorus.

G|-------------------------|-------------------------|
D|-------------------------|-------------------------|
A|-5-5-5-5-0-0-0-0-3-3-3-3-|-5-5-5-5-0-0-0-0-3-3-3-3-|
E|-------------------------|-------------------------|

G|-------------------------|---------|
D|-------------------------|---------|
A|-5-5-5-5-0-0-0-0-3-3-3-3-|-5-5-5-5-|
E|-------------------------|---------|

After that, move on to the 2nd & 3rd verse, which
is played slightly different than the 1st verse.

Like so:

G|-------------------------|-------------------------|-
D|-------------------------|-------------------------|-
A|-0-0-x-0-3-3-x-3-5-5-5-5-|-0-0-x-0-3-3-x-3-5-5-5-5-|-
E|-------------------------|-------------------------|-

G|-------------------------|------|
D|-------------------------|------|
A|-0-0-x-0-3-3-x-3-5-5-5-5-|-0-0--|
E|-------------------------|------|

Now play the chorus.

After the chorus is played, comes the bridge.
 
G|-----------------|-----------------|-------------|---------------|-
D|-----------------|-----------------|-------------|---------------|-
A|-----------------|-8-8-8-----------|-------------|-8-8-8---------|-
E|-h6--6-6-8---8-8-|-------6--6-6-h6-|--6-6-8--8-8-|-------6-6-6-6-|-

G|-----------------|----------------|-----------------|---------------------|
D|-----------------|----------------|-----------------|---------3---5---5---|
A|-----------------|-8/-10-8--------|-----------------|-0-0-5-----3---5---5-|
E|-h6--6-6-8---8-8-|---------6--(6)-|-h5--5-3--3-2--2-|---------------------|

So after the bridge, you play the 3rd verse, which 
is played just like the 2nd verse. Then move on to
the chorus. 

And then, the outro is played.

G|---------------------------|-----------------|-----------------|-
D|*-------------------------*|-----------------|-----------------|-
A|*-0-0-x-0-3-3-x-3-5-5-5-5-*|-----------------|-8-8-8-----------|-
E|---------------------------|-h6--6-6-8---8-8-|-------6--6-6-h6-|-

G|-------------|---------------|-----------------|--------------|
D|-------------|---------------|-----------------|--------------|
A|-------------|-8-8-8---------|-----------------|-8-8-8--------|
E|--6-6-8--8-8-|-------6-6-6-6-|-h6--6-6-8---8-8-|-------6---h6-|

And that's it!

-----------------------------------------------------------------------------
			  Pixies - Monkey Gone To Heaven
----------------------------------------------------------------------------

Main riff / Verse thingy:
	                                
G|------------|------------------------|
D|------------|------------------------|
A|------------|-5--5-5--2--2-2--5--5-5-|
E|-0--2--2--5-|------------------------|

Chorus:
					  
G|------------|---------------------------|-----------------------|
D|------------|---------------------------|-----------------------|
A|------------|-5-5-5-5-5-5-5-5-2-2-2-2-2-|-2-2-2-5-5-5-5-5-5-5-5-|
E|-0--2--2--5-|---------------------------|-----------------------|


-----------------------------------------------------------------------------
			  Pixies - Mr. Grieves
-----------------------------------------------------------------------------

Tabbed By : Kadavreski

Tuning: Standard

Quick note: i use Xs to denote pauses; don't play dead notes.

The funny bit at the start during the 

"Hope everything is all riiiiight" bit... [0:29]

G|-12-12-11-11-10-10-9-------|
D|---------------------------|
A|---------------------------|
E|---------------------------|

Now when everyone else / Drums come in... [0:42]
G|---------------------------------------------------------|
D|---------------------------------------------------------|
A|-5-5-------------------5-2-2-2-2-------------------------|
E|-----0-0-0-2-3-3-3-2-3-----------2-2-2-2-3-3-3-3-0-0-0-0-|
Keep going (just follow the tab with the music)
G|-------------------------------------------------------------------------|
D|-------------------------------------------------------------------------|
A|-5-5-------------------5-2-2-----2-2-----2-2-----2-2-----2-2-----2-2-----|
E|-----0-0-0-2-3-3-3-2-3-------2-2-----2-2-----2-2-----2-2-----2-2-----2-2-|
Yeah, tiny little pause after that last 2 where the X is.
G|-----------------------------------------------------|
D|-----------------------------------------------------|
A|-2-2-----2-2-----2-2/5-4------------/2-0-------------|
E|-----2-2-----2-X---------2-2-2-2-3-3-----0-0-0-0-0-0-|

G|-----------------------------------------------------------------|
D|-----------------------------------------------------------------|
A|-5-5-0-0-----------------------5-2-2-2-2-------------------------|
E|---------0-0-0-2-3-3-3-3-3-2-3-----------2-2-2-2-3-3-3-3-0-0-0-0-|
The stretch of Xs is a pause with no bass. it's timed like the rest, so just 
follow the i guess?
G|-------------------------------------------------------------------------|
D|-------------------------------------------------------------------------|
A|-5-x-0-x-------------------------2-2-----2-2-----2-2-----2-2----2-2------|
E|---------0-0-0-2-x-x-x-x-x-x-x-x-----2-2-----2-2-----2-2-----2-2----2-2--|
That last 2 is a biiig note. let it ring for a bit.
G|-------------------------------------------|
D|-------------------------------------------|
A|-2-2-----2-2-----2-2-----2-2-----2-2-------|
E|-----2-2-----2-2-----2-2-----2-2-----2-2-2-|
When the music resumes... [1:36 exactly] (this last bit is timed slightly 
differently; go with the groove, yeah?)
G|--------------------------------------------------------------------------|
D|--------------------------------------------------------------------------|
A|-----------------------------5-5-5-5-5-5-0-0-0-0-0-0----------------------|
E|-3-3-3-3-3-3-0-0-0-0-0-0-0-0-------------------------0-0-0-0-0-0-0-0-2-3\-|
aaand we're back to where we started. this part is about half the speed of 
the rest! 7 slide out is the very last note.
G|-------------------------------------|
D|-------------------------------------|
A|-2-2---------2-2---------2-2---------|
E|-----2-2-0-0-----2-2-0-0-----0-0-7\--|

-----------------------------------------------------------------------------
			  Pixies - Crackity Jones
-----------------------------------------------------------------------------

Tabbed By : Extra Blood
e-mail: Lenda@ofir.dk

Tuning: Standard

This is the whole song and its order and it's played fairly fast.

G-|-----------------|-----------------|-----------------|-------------------|
D-|-----------------|-----------------|-----------------|-------------------|
A-|------REST-------|------REST-------|------REST-------|------REST---------|
E-|-----------------|-----------------|-----------------|-------------------|

G-|-----------------|-----------------|-----------------|-------------|
D-|*----------------|-----------------|-----------------|------------*|
A-|*----------------|-----------------|---------4-4-4-4-|-4--4-4-4-4-*|
E-|-5-5-5--5-5--5-5-|-5-5--4-4-4--4-4-|-4-4-4-4---------|-------------|

G-|--------------|-------------|-------------------------------| 
D-|--------------|-------------|*-----------------------------*| 
A-|--------4-4-4-|-------5-5-5-|*-------4-4-4---------5-5-4-5-*|  
E-|-5-5-5--------|-4-4-4-------|-5-5-5---------4-4-4-----------|

G-|-----------------|----------|
D-|-----------------|----------|
A-|---------4-4-4-4-|-5--------|
E-|-5-5-5-5---------|----------|
                      ^Let Ring

G-|-----------------|-----------------|-----------------|-------------|
D-|*----------------|-----------------|-----------------|------------*|
A-|*----------------|-----------------|---------4-4-4-4-|-4--4-4-4-4-*|
E-|-5-5-5--5-5--5-5-|-5-5--4-4-4--4-4-|-4-4-4-4---------|-------------|

G-|-----------------|------------------------------------------
D-|-----------------|*-----------------------------------------
A-|-5-5-5-5---------|*-----------------------------------------
E-|---------4-4-4-4-|-5-5-5--5-5--5-5-5-5--4-4-4--4-4--4-4-4-4-

G-|----------------------|
D-|---------------------*|
A-|-4-4-4--4-4--4-4-4-4-*|
E-|----------------------|

G-|-----------------|-----------------|-----------------|-------------------|
D-|-----------------|-----------------|-----------------|-------------------|
A-|-4-4-4-4-4-4-4-4-|-4-4-4-4-4-4-4-4-|-5-5-5-5-5-5-5-5-|-------------------|
E-|-----------------|-----------------|-----------------|-4-4-4-4-4-4-4-4-5-|

-----------------------------------------------------------------------------
			  Pixies - La La Love You
-----------------------------------------------------------------------------

Tabbed By : Extra Blood
e-mail: Lenda@ofir.dk

Tuning: Standard

Shake your butt!!

G-|-----------------|-----------------|-----------------|-----------------
D-|*---------------*|-----------------|-----------------|-----------------
A-|*-----REST------*|-5-5-5-5-5-5-3-3-|-1-1-1-1-1-0-1-3-|-5-5-5-5-5-5-5-5-
E-|-----------------|-----------------|-----------------|-----------------

G-|-----------------|-----------------|-----------------|-----------------
D-|-----------------|-----------------|-----------------|-----------------
A-|-1-1-1-1-1-1-1-1-|-5-5-5-5-5-5-3-3-|-1-1-1-1-1-0-1-3-|-5-5-5-5-5-5-5-5- 
E-|-----------------|-----------------|-----------------|-----------------

G-|-----------------|-----------------|-----------------|----------|
D-|-----------------|*----------------|-----------------|---------*|
A-|-x-0-0-0-0-0-0-0-|*5-5-5-5-5-5-5-5-|-----------------|-2-2-2-2-*|
E-|-----------------|-----------------|-5-5-5-5-0-0-0-0-|----------|

G-|-----------------|-----------------|-----------------|-----------------
D-|-----------------|-----------------|-----------------|-----------------
A-|---------0-0-0-0-|-5-5-5-5---------|---------0-0-0-0-|-5-5-5-5-1-1-1-1-
E-|-3-3-3-3---------|---------0-------|-2-2-2-2---------|-----------------
                              ^Let Ring

G-|---------|-----------------|-----------------|----------|
D-|---------|*----------------|-----------------|---------*|
A-|-0-0-0-0-|*5-5-5-5-5-5-5-5-|-0-0-0-0---------|-2-2-2-2-*|
E-|---------|-----------------|---------0-0-0-0-|----------|

G-|-----------------|-----------------|-----------------|-----------------
D-|-----------------|-----------------|-----------------|-----------------
A-|-----------------|-----------------|-5-5-5-5-1-1-1-1-|-0-0-0-0-0-0-0-0-
E-|-3-3-3-3-3-3-3-3-|-3-3-3-3-3-3-3-3-|-----------------|-----------------

G-|-----------------|-----------------|-----------------|-----------------
D-|-----------------|-----------------|-----------------|-----------------
A-|-5-5-5-5-1-1-1-1-|-x-0-0-0-0-0-0-0-|-5-5-5-5-5-5-5-5-|-0-0-0-0---------
E-|-----------------|-----------------|-----------------|---------0-0-0-0-

G-|-----------------|-----------------|-----------------|-----------------
D-|-----------------|-----------------|-----------------|-----------------
A-|-2-2-2-2-5-5-5-5-|-5-5-5-5-0-0-0-0-|---------2-2-2-2-|-5-5-5-5-5-5-5-5-
E-|-----------------|-----------------|-0-0-0-0---------|-----------------

G-|-----------------|-----------------|-----------------|-----------------
D-|-----------------|-----------------|-----------------|-----------------
A-|-0-0-0-0---------|-2-2-2-2---------|-0-0-0-0-5-5-5-5-|-----------------
E-|---------0-0-0-0-|---------3-3-3-3-|-----------------|-0---------------
                                                          ^Let Ring

G-|-----------------|-----------------|-----------------|----------|
D-|-----------------|-----------------|*----------------|---------*|
A-|---------0-0-0-0-|-5-5-5-5-1-1-1-1-|*0-0-0-0-5-5-5-5-|-1-1-1-1-*|
E-|-2-2-2-2---------|-----------------|-----------------|----------|

G-|-----------------|-----------------|-----------------
D-|-----------------|-----------------|-----------------
A-|-0-0-0-0-5-5-5-5-|-5-5-5-5-0-0-0-0-|---------2-2-2-2-
E-|-----------------|-----------------|-0-0-0-0---------

G-|-----------------|-----------------|----------|---------------|
D-|*----------------|-----------------|---------*|---------------|
A-|*5-5-5-5-5-5-5-5-|-0-0-0-0---------|-2-2-2-2-*|-5-5-5-5-5-5-5-|
E-|-----------------|---------0-0-0-0-|----------|---------------|

-----------------------------------------------------------------------------
			  Pixies - No. 13 Baby
-----------------------------------------------------------------------------

Tabbed By : Extra Blood

Tuning: Standard

Intro:

G-|-----------------|-----------------|-----------------|-----------------|
D-|-----------------|-----------------|-----------------|-----------------|
A-|------REST-------|------REST-------|------REST-------|------REST-------|
E-|-----------------|-----------------|-----------------|-----------------|

1st Verse:

G-|-----------------|-----------------|-----------------|-----------------|
D-|-----------------|*---------------*|-----------------|-----------------|
A-|-----------------|*---------------*|------REST-------|------REST-------|
E-|-3-x-3-3-3-3-3-3-|-3-3-3-3-3-3-3-3-|-----------------|-----------------|

G-|-----------------|-----------------|-----------------|-----------------|
D-|-----------------|-----------------|*----------------|----------------*|
A-|-----------------|-----------------|*----------------|----------------*|
E-|-x-x-3-3-3-3-3-3-|-3-3-3-3-3-3-3-3-|-3-x-3-3-3-3-3-3-|-3-3-3-3-3-3-3-3-|

Pre-Chorus:

G-|-----------------|-----------------|-----------------|-----------------|
D-|-----------------|-----------------|-----------------|-----------------|
A-|-4-4-4-4-5-5-5-5-|-----------------|-4-4-4-4-5-5-5-5-|-1-x-1-1-1-1-1-1-|
E-|-----------------|-3-x-3-3-3-3-3-3-|-----------------|-----------------|

G-|-----------------|-----------------|---------|
D-|-----------------|-----------------|---------|
A-|-4-4-4-4-5-5-5-5-|-----------------|---------|
E-|-----------------|-1-1-1-1-0-0-0-0-|-3-3-3-3-|

Chorus:

G-|-----------------|-----------------|-----------------|
D-|*----------------|-----------------|-----------------|
A-|*3-----3-3-------|-----------------|-6-----6-6-------|
E-|-----------------|-3-----3-3-------|-----------------|

G-|-------|-----------------|
D-|------*|-----------------|
A-|-1--1-*|-4-4-4-4-5-5-5-5-|
E-|-------|-----------------|

2nd Verse:

G-|-----------------|-----------------|-----------------|-----------------|
D-|-----------------|*---------------*|-----------------|-----------------|
A-|-----------------|*---------------*|--------REST-----|------REST-------|
E-|-3-x-3-3-3-3-3-3-|-3-3-3-3-3-3-3-3-|-3-3-------------|-----------------|

G-|-----------------|-----------------|-----------------|-----------------|
D-|-----------------|-----------------|*----------------|----------------*|
A-|-----------------|-----------------|*----------------|----------------*|
E-|-x-x-3-3-3-3-3-3-|-3-3-3-3-3-3-3-3-|-3-x-3-3-3-3-3-3-|-3-3-3-3-3-3-3-3-|

-Pre-Chorus
-Chorus

Pre-Chorus:

G-|-----------------|-----------------|-----------------|
D-|-----------------|-----------------|-----------------|
A-|-----------------|-4-4-4-4-5-5-5-5-|-1-x-1-1-1-1-1-1-|
E-|-3-x-3-3-3-3-3-3-|-----------------|-----------------|

G-|-----------------|-----------------|---------|
D-|-----------------|-----------------|---------|
A-|-4-4-4-4-5-5-5-5-|-----------------|---------|
E-|-----------------|-1-1-1-1-0-0-0-0-|-3-3-3-3-|

Outro:

G-|-----------------|-----------------|-----------------|-------|
D-|*----------------|-----------------|-----------------|------*|
A-|*3-----3-3-------|-----------------|-6-----6-6-------|-1--1-*|
E-|-----------------|-3-----3-3-------|-----------------|-------|

-----------------------------------------------------------------------------
			  Pixies - There Goes My Gun
-----------------------------------------------------------------------------

Tabbed  By : Rodeo_Clown
e-mail: Peace-love-unity@hotmail.co.uk

Tuning: Standard

Verse x 4

G|-----------------------------|
D|-----------------------------|
A|-9-9--/-44-4--4h5-5----------|
E|-----------------------------|

Chorus x 2

G|--------------------------------------------------------|
D|--------------------------------------------------------|
A|----------------5-\77777777777-/3----------------2--2---|
E|--55555555555--------------------33333333333------------|

Outro

G|------------------------------------------------------------------|
D|------------------------------------------------------------------|
A|-9999-/4444-\55--9999-/4444-\55--9999-/4444-\55--9999-/4444-\55---|
E|------------------------------------------------------------------|


G|-----------------------|
D|-----------------------|
A|---------5h7-----------|
E|--555555------55-------|

Order

Intro (No Bass)
Verse
Chorus
Verse
Chorus
Verse
Instrumental (continue playing verse)
Chorus
Outro

-----------------------------------------------------------------------------
			  Pixies - Hey
-----------------------------------------------------------------------------

Tabbed by: RaiLeff
E-mail: Underground__Dora@Hotmail.Com

Tuning: EADG

Verse
"Been trying to meet you..."
1.
G|-------------------------------------------------------------|
D|-------------------------------------------------------------|
A|-------0-1-2~--2~--2-3-4-5~--5~--5---------------------------|
E|-2~--------------------------------0-2-3~--3~--3-0-1-2~--2~--|

"Must be a devil between us..."
2.
G|--------------------------------------------------------|
D|--------------------------------------------------------|
A|---0-1-2~--2~--2-3-4-5~--5~--5--------------------------|--x2
E|-2-----------------------------0-2-3~--3~--3-0-1-2~--2~-|

3.
G|------------------------------------------------------------------------|
D|------------------------------------------------------------------------|
A|---0-1-2~--2~--2-3-4-5~--5~--5---------------22222222-------------------|
E|-2-----------------------------0-2-3~----0~-----------33333333-00000000-|

Chorus
"We're chained..."
4.
G|-------------------------------------------------------------------------|
D|-------------------------------------------------------------------------|
A|-22222222-------------------22222222-------------------22222222----------|
E|----------33333333-00000000----------33333333-00000000----------33333333-|

5.
G|-------------------|
D|-------------------|
A|----------22222222-|
E|-00000000----------|

6.
G|---------------------------------------------------------|
D|---------------------------------------------------------|
A|-------------------------0-1-2~--2~--2-3-4-5~--5~--5-----|--x5
E|-3~--3~--3-0-1-2~--2~--2-----------------------------0-2-|

"Said the man to the lady..."
7.
G|---------------------------------------------------------|
D|---------------------------------------------------------|
A|-------------------------0-1-2~--2~--2-3-4-5~--5~--5-----|
E|-3~--------0-1-2-------------------------------------0-2-|

8.
G|---------------------------------------------------------|
D|---------------------------------------------------------|
A|-------------------------0-1-2~--2~--2-3-4-5~--5~--5-----|--x3
E|-3~--3~--3-0-1-2~--2~--2-----------------------------0-2-|

9.
G|----------------------------------------|
D|----------------------------------------|
A|-------------22222222-------------------|
E|-3~----0~-------------33333333-00000000-|

Chorus
"We're chained..."
10.
G|----------------------------|----------------------------|
D|----------------------------|*--------------------------*|
A|-22222222-------------------|*22222222------------------*|
E|----------33333333-00000000-|----------33333333-00000000-|

11.
G|--------------------------------------|
D|--------------------------------------|
A|-22222222-------------------2~--------|
E|----------33333333-00000000-----------|

-----------------------------------------------------------------------------
			  Pixies - Silver
-----------------------------------------------------------------------------

I can't find anything for this song. Sorry <:(

-----------------------------------------------------------------------------
			  Pixies - Gouge Away
-----------------------------------------------------------------------------

Band : The Pixies
Song : Gouge Away
Tabber : Michael Keating
E-Mail : tubbyhunter@hotmail.com

Tuning : Standard

The chorus becomes a new verse without much warning, so pay 
attention. Otherwise, another simple but effective bassline 
from Miss Deal.

[Verse 1] x4 "Gouge away..."

G|-----------------|-----------------|-----------------|
D|-----------------|-----------------|-----------------|
A|-----------------|-----------------|-7-7-7-7-7-7-7-7-|
E|-4-4-4-4-4-4-4-4-|-7-7-7-7-7-7-7-7-|-----------------|

G|-----------------|-----------------|
D|-----------------|-----------------|
A|-----------------|-7-7-7-7-7-7-7-7-|
E|-4-4-4-4-4-4-4-4-|-----------------|

[Chorus 1] "Missy aggravation..."

Note that the chorus is very short, so by the time the last 
line of the chorus is being sung, you are back into playing 
the verse again.

G|-----------------|-----------------|-----------------|
D|-----------------|-----------------|-----------------|
A|-----------------|-----------------|-7-7-7-7-7-7-7-7-|
E|-4-4-4-4-4-4-4-4-|-7-7-7-7-7-7-7-7-|-----------------|

G|-----------------|-----------------|
D|-----------------|-----------------|
A|-----------------|-7-7-7-7-7-7-7-7-|
E|-4-4-4-4-4-4-4-4-|-----------------|

[Verse 2] x4 "...if you got some...Gouge away..."

G|-----------------|-----------------|-----------------|
D|-----------------|-----------------|-----------------|
A|-----------------|-----------------|-7-7-7-7-7-7-7-7-|
E|-4-4-4-4-4-4-4-4-|-7-7-7-7-7-7-7-7-|-----------------|

G|-----------------|-----------------|
D|-----------------|-----------------|
A|-----------------|-7-7-7-7-7-7-7-7-|
E|-4-4-4-4-4-4-4-4-|-----------------|

[Chorus 2] "Sleeping on your belly..."

G|-----------------|-----------------|-----------------|
D|-----------------|-----------------|-----------------|
A|-----------------|-----------------|-7-7-7-7-7-7-7-7-|
E|-4-4-4-4-4-4-4-4-|-7-7-7-7-7-7-7-7-|-----------------|

G|-----------------|-----------------|
D|-----------------|-----------------|
A|-----------------|-7-7-7-7-7-7-7-7-|
E|-4-4-4-4-4-4-4-4-|-----------------|

[Verse 3] x3 "with holy fingers...Gouge away..."

Remember to throw in the emphasis on the last few notes on 
the third time before you go into the chorus. Go on, be angry.

G|-----------------|-----------------|-----------------|
D|-----------------|-----------------|-----------------|
A|-----------------|-----------------|-7-7-7-7-7-7-7-7-|
E|-4-4-4-4-4-4-4-4-|-7-7-7-7-7-7-7-7-|-----------------|

G|-----------------|-----------------|
D|-----------------|-----------------|
A|-----------------|-7-7-7-7-7-7-7-7-|
E|-4-4-4-4-4-4-4-4-|-----------------|

[Chorus 3] x3 "Chained to the pillars..."

G|-----------------|-----------------|-----------------|
D|-----------------|-----------------|-----------------|
A|-----------------|-----------------|-7-7-7-7-7-7-7-7-|
E|-4-4-4-4-4-4-4-4-|-7-7-7-7-7-7-7-7-|-----------------|

G|-----------------|-----------------|
D|-----------------|-----------------|
A|-----------------|-7-7-7-7-7-7-7-7-|
E|-4-4-4-4-4-4-4-4-|-----------------|

End on

G|-----------------|
D|-----------------|
A|-----------------|
E|-4---------------|

Tada.

=========================================================================

            
            
Suggest correction
Creating personal tab
Creating personal tab
You can edit any tab online and save it as your Personal.

You can edit, replace or remove any tab part or add personal notes – all changes will be seen only by you.

Personal tabs can be accessed anytime from any device, even offline.
Learn more »
comments
print report bad tab
2 comments total.
0 reply
gami1996 10 Oct 26, 2013 03:26 PM

Fantastic collection, thank you!

0 reply
whatgoesboom 184 Oct 25, 2014 12:50 PM

the gouge away bass line is written in a needlessly complicated way and it's wrong!

guest
You may want to rate the tab now too:
select rating
Wanna post a correction for this tab? Suggest correction