Oops, an error
Loading. Please wait.

Gigantic Bass Tab

version 1
version 1

Whole song

Interactive

40,121 views 87 this week
9 commentsread comments
1 2 3 4 5
x 37
add to favorites
launch autoscroll
font size
0
reset
guitar tuner
Autoscroll
slow
fast
+/-
esc
set tempo
stop
Help us to improve Ultimate-Guitar.com Take our survey!
×
This song is based upon one basic bass-riff.
Repeat it trough the whole song, except during the guitar-solo.

( Intro: 8 hihats or something )


[Main riff]

G|--------------|--------------|--------------|--------------|
D|--------------|--------------|--------------|--------------|
A|--------------|--5--5--7--7--|--2--2--2--2--|--3--3--5--5--|
E|--3--3--3--3--|--------------|--------------|--------------|
Suggest correction
comments
print report bad tab
9 comments total. Showing first comments.
0 reply
kanutianrocket 10 Feb 16, 2009 04:40 PM

g-------------------------------------------------------------|
d------------22-----------------------------------------------|
a--------55-------22----3----55-------------------------------|
e---3-----------------------------33--------------------------|

I think this would be the intro...

+1 reply
carsonxX 20 Feb 19, 2009 11:33 PM

Kanutian rocket, you do realize that these are the exact same notes, right...?

0 reply
kanutianrocket 10 Feb 20, 2009 01:16 AM

except for the part where it sounds totally different.
other than that you might be right.

guest
You may want to rate the tab now too:
select rating
Wanna post a correction for this tab? Suggest correction